  0
SECTION
  2
HEADER
  9
$ACADVER
  1
AC1006
  9
$EXTMIN
 10
0.000000
 20
0.000000
  9
$EXTMAX
 10
8.263528
 20
11.693751
  9
$LTSCALE
 40
0.209415
  9
$PDMODE
 70
    35
  9
$PDSIZE
 40
0.167532
  0
ENDSEC
  0
SECTION
  2
TABLES
  0
TABLE
  2
LTYPE
 70
     9
  0
LTYPE
  2
CONTINUOUS
 70
    64
  3
Solid line
 72
    65
 73
     0
 40
0.000000
  0
LTYPE
  2
DASHED
 70
    64
  3
__ __ __ __ __ __ __ __ __ __ __ __ __ __ __
 72
    65
 73
     2
 40
0.001571
 49
0.001047
 49
-0.000524
  0
LTYPE
  2
HIDDEN
 70
    64
  3
 _ _ _ _ _ _ _ _ _ _ _ _ _ _ _ _ _ _ _ _ _ _
 72
    65
 73
     2
 40
0.000785
 49
0.000524
 49
-0.000262
  0
LTYPE
  2
CENTER
 70
    64
  3
____ _ ____ _ ____ _ ____ _ ____ _ ____ _ ____
 72
    65
 73
     4
 40
0.004188
 49
0.002618
 49
-0.000524
 49
0.000524
 49
-0.000524
  0
LTYPE
  2
PHANTOM
 70
    64
  3
_____ _ _ _____ _ _ _____ _ _ _____ _ _ ____
 72
    65
 73
     6
 40
0.005235
 49
0.002618
 49
-0.000524
 49
0.000524
 49
-0.000524
 49
0.000524
 49
-0.000524
  0
LTYPE
  2
DOT
 70
    64
  3
...............................................
 72
    65
 73
     2
 40
0.000524
 49
0.000000
 49
-0.000524
  0
LTYPE
  2
DASHDOT
 70
    64
  3
__ . __ . __ . __ . __ . __ . __ . __ . __ . __
 72
    65
 73
     4
 40
0.002094
 49
0.001047
 49
-0.000524
 49
0.000000
 49
-0.000524
  0
LTYPE
  2
BORDER
 70
    64
  3
__ __ . __ __ . __ __ . __ __ . __ __ . __ __
 72
    65
 73
     6
 40
0.003665
 49
0.001047
 49
-0.000524
 49
0.001047
 49
-0.000524
 49
0.000000
 49
-0.000524
  0
LTYPE
  2
DIVIDE
 70
    64
  3
__ . . __ . . __ . . __ . . __ . . __ . . __
 72
    65
 73
     6
 40
0.002618
 49
0.001047
 49
-0.000524
 49
0.000000
 49
-0.000524
 49
0.000000
 49
-0.000524
  0
LTYPE
  2
DOTDOT
 70
    64
  3
 . .  . .  . .  . .  . .  . . 
 72
    65
 73
     5
 40
0.001152
 49
-0.000524
 49
0.000000
 49
-0.000524
 49
0.000000
 49
-0.000524
  0
ENDTAB
  0
TABLE
  2
STYLE
 70
     2
  0
STYLE
 70
     0
  2
SN0
 40
0.000000
 41
0.002094
 50
0.000000
 71
     0
 42
0.000000
  3
ITALICC
  0
STYLE
 70
    68
  2
SV0
 40
0.000000
 41
0.002094
 50
0.000000
 71
     0
 42
0.000000
  3
ITALICC
  0
ENDTAB
  0
TABLE
  2
LAYER
 70
     3
  0
LAYER
  2
FOREGROUND
 70
    64
 62
     7
  6
CONTINUOUS
  0
LAYER
  2
BACKGROUND
 70
    65
 62
    -7
  6
CONTINUOUS
  0
LAYER
  2
ڲ-3
 70
    64
 62
     7
  6
CONTINUOUS
  0
ENDTAB
  0
ENDSEC
  0
SECTION
  2
ENTITIES
  0
POLYLINE
  8
ڲ-3
  6
CONTINUOUS
 66
     1
 40
0.012565
 41
0.012565
  0
VERTEX
  8
ڲ-3
  6
CONTINUOUS
 10
7.570364
 20
5.009214
  0
VERTEX
  8
ڲ-3
  6
CONTINUOUS
 10
7.596834
 20
5.082826
  0
VERTEX
  8
ڲ-3
  6
CONTINUOUS
 10
7.622020
 20
5.156841
  0
VERTEX
  8
ڲ-3
  6
CONTINUOUS
 10
7.645926
 20
5.231245
  0
VERTEX
  8
ڲ-3
  6
CONTINUOUS
 10
7.668555
 20
5.306022
  0
VERTEX
  8
ڲ-3
  6
CONTINUOUS
 10
7.689911
 20
5.381158
  0
VERTEX
  8
ڲ-3
  6
CONTINUOUS
 10
7.709997
 20
5.456638
  0
VERTEX
  8
ڲ-3
  6
CONTINUOUS
 10
7.728818
 20
5.532448
  0
VERTEX
  8
ڲ-3
  6
CONTINUOUS
 10
7.746376
 20
5.608574
  0
VERTEX
  8
ڲ-3
  6
CONTINUOUS
 10
7.762676
 20
5.685000
  0
VERTEX
  8
ڲ-3
  6
CONTINUOUS
 10
7.777721
 20
5.761711
  0
VERTEX
  8
ڲ-3
  6
CONTINUOUS
 10
7.791515
 20
5.838694
  0
VERTEX
  8
ڲ-3
  6
CONTINUOUS
 10
7.804061
 20
5.915933
  0
VERTEX
  8
ڲ-3
  6
CONTINUOUS
 10
7.815364
 20
5.993414
  0
VERTEX
  8
ڲ-3
  6
CONTINUOUS
 10
7.825426
 20
6.071122
  0
VERTEX
  8
ڲ-3
  6
CONTINUOUS
 10
7.834252
 20
6.149042
  0
VERTEX
  8
ڲ-3
  6
CONTINUOUS
 10
7.841844
 20
6.227161
  0
VERTEX
  8
ڲ-3
  6
CONTINUOUS
 10
7.848208
 20
6.305462
  0
VERTEX
  8
ڲ-3
  6
CONTINUOUS
 10
7.853346
 20
6.383933
  0
VERTEX
  8
ڲ-3
  6
CONTINUOUS
 10
7.857263
 20
6.462557
  0
VERTEX
  8
ڲ-3
  6
CONTINUOUS
 10
7.857263
 20
6.462557
  0
VERTEX
  8
ڲ-3
  6
CONTINUOUS
 10
7.841876
 20
6.463116
  0
VERTEX
  8
ڲ-3
  6
CONTINUOUS
 10
7.799342
 20
6.464689
  0
VERTEX
  8
ڲ-3
  6
CONTINUOUS
 10
7.733842
 20
6.467113
  0
VERTEX
  8
ڲ-3
  6
CONTINUOUS
 10
7.649555
 20
6.470231
  0
VERTEX
  8
ڲ-3
  6
CONTINUOUS
 10
7.550663
 20
6.473880
  0
VERTEX
  8
ڲ-3
  6
CONTINUOUS
 10
7.441347
 20
6.477902
  0
VERTEX
  8
ڲ-3
  6
CONTINUOUS
 10
7.325788
 20
6.482137
  0
VERTEX
  8
ڲ-3
  6
CONTINUOUS
 10
7.208166
 20
6.486423
  0
VERTEX
  8
ڲ-3
  6
CONTINUOUS
 10
7.092662
 20
6.490601
  0
VERTEX
  8
ڲ-3
  6
CONTINUOUS
 10
6.983458
 20
6.494512
  0
VERTEX
  8
ڲ-3
  6
CONTINUOUS
 10
6.884733
 20
6.497994
  0
VERTEX
  8
ڲ-3
  6
CONTINUOUS
 10
6.800670
 20
6.500888
  0
VERTEX
  8
ڲ-3
  6
CONTINUOUS
 10
6.735449
 20
6.503034
  0
VERTEX
  8
ڲ-3
  6
CONTINUOUS
 10
6.693250
 20
6.504271
  0
VERTEX
  8
ڲ-3
  6
CONTINUOUS
 10
6.678254
 20
6.504440
  0
VERTEX
  8
ڲ-3
  6
CONTINUOUS
 10
6.674665
 20
6.423767
  0
VERTEX
  8
ڲ-3
  6
CONTINUOUS
 10
6.669285
 20
6.343324
  0
VERTEX
  8
ڲ-3
  6
CONTINUOUS
 10
6.662120
 20
6.263146
  0
VERTEX
  8
ڲ-3
  6
CONTINUOUS
 10
6.653173
 20
6.183271
  0
VERTEX
  8
ڲ-3
  6
CONTINUOUS
 10
6.642450
 20
6.103734
  0
VERTEX
  8
ڲ-3
  6
CONTINUOUS
 10
6.629954
 20
6.024573
  0
VERTEX
  8
ڲ-3
  6
CONTINUOUS
 10
6.615691
 20
5.945824
  0
VERTEX
  8
ڲ-3
  6
CONTINUOUS
 10
6.599666
 20
5.867524
  0
VERTEX
  8
ڲ-3
  6
CONTINUOUS
 10
6.581881
 20
5.789709
  0
VERTEX
  8
ڲ-3
  6
CONTINUOUS
 10
6.562343
 20
5.712416
  0
VERTEX
  8
ڲ-3
  6
CONTINUOUS
 10
6.541056
 20
5.635682
  0
VERTEX
  8
ڲ-3
  6
CONTINUOUS
 10
6.518024
 20
5.559543
  0
VERTEX
  8
ڲ-3
  6
CONTINUOUS
 10
6.493252
 20
5.484036
  0
VERTEX
  8
ڲ-3
  6
CONTINUOUS
 10
6.466745
 20
5.409198
  0
VERTEX
  8
ڲ-3
  6
CONTINUOUS
 10
6.466745
 20
5.409198
  0
VERTEX
  8
ڲ-3
  6
CONTINUOUS
 10
6.566910
 20
5.372907
  0
VERTEX
  8
ڲ-3
  6
CONTINUOUS
 10
6.663776
 20
5.337782
  0
VERTEX
  8
ڲ-3
  6
CONTINUOUS
 10
6.757229
 20
5.303870
  0
VERTEX
  8
ڲ-3
  6
CONTINUOUS
 10
6.847152
 20
5.271220
  0
VERTEX
  8
ڲ-3
  6
CONTINUOUS
 10
6.933431
 20
5.239881
  0
VERTEX
  8
ڲ-3
  6
CONTINUOUS
 10
7.015949
 20
5.209901
  0
VERTEX
  8
ڲ-3
  6
CONTINUOUS
 10
7.094592
 20
5.181328
  0
VERTEX
  8
ڲ-3
  6
CONTINUOUS
 10
7.169244
 20
5.154211
  0
VERTEX
  8
ڲ-3
  6
CONTINUOUS
 10
7.239789
 20
5.128598
  0
VERTEX
  8
ڲ-3
  6
CONTINUOUS
 10
7.306112
 20
5.104537
  0
VERTEX
  8
ڲ-3
  6
CONTINUOUS
 10
7.368099
 20
5.082077
  0
VERTEX
  8
ڲ-3
  6
CONTINUOUS
 10
7.425632
 20
5.061267
  0
VERTEX
  8
ڲ-3
  6
CONTINUOUS
 10
7.478598
 20
5.042154
  0
VERTEX
  8
ڲ-3
  6
CONTINUOUS
 10
7.526880
 20
5.024787
  0
VERTEX
  8
ڲ-3
  6
CONTINUOUS
 10
7.570364
 20
5.009214
  0
SEQEND
  8
0
  0
POLYLINE
  8
ڲ-3
  6
CONTINUOUS
 66
     1
 40
0.012565
 41
0.012565
  0
VERTEX
  8
ڲ-3
  6
CONTINUOUS
 10
6.680348
 20
6.489781
  0
VERTEX
  8
ڲ-3
  6
CONTINUOUS
 10
7.853074
 20
6.454180
  0
SEQEND
  8
0
  0
POLYLINE
  8
ڲ-3
  6
CONTINUOUS
 66
     1
 40
0.012565
 41
0.012565
  0
VERTEX
  8
ڲ-3
  6
CONTINUOUS
 10
7.855168
 20
6.458368
  0
VERTEX
  8
ڲ-3
  6
CONTINUOUS
 10
7.857527
 20
6.530663
  0
VERTEX
  8
ڲ-3
  6
CONTINUOUS
 10
7.858740
 20
6.603043
  0
VERTEX
  8
ڲ-3
  6
CONTINUOUS
 10
7.858804
 20
6.675494
  0
VERTEX
  8
ڲ-3
  6
CONTINUOUS
 10
7.857717
 20
6.748004
  0
VERTEX
  8
ڲ-3
  6
CONTINUOUS
 10
7.855479
 20
6.820560
  0
VERTEX
  8
ڲ-3
  6
CONTINUOUS
 10
7.852086
 20
6.893148
  0
VERTEX
  8
ڲ-3
  6
CONTINUOUS
 10
7.847537
 20
6.965756
  0
VERTEX
  8
ڲ-3
  6
CONTINUOUS
 10
7.841830
 20
7.038370
  0
VERTEX
  8
ڲ-3
  6
CONTINUOUS
 10
7.834964
 20
7.110978
  0
VERTEX
  8
ڲ-3
  6
CONTINUOUS
 10
7.826936
 20
7.183566
  0
VERTEX
  8
ڲ-3
  6
CONTINUOUS
 10
7.817745
 20
7.256121
  0
VERTEX
  8
ڲ-3
  6
CONTINUOUS
 10
7.807388
 20
7.328631
  0
VERTEX
  8
ڲ-3
  6
CONTINUOUS
 10
7.795864
 20
7.401083
  0
VERTEX
  8
ڲ-3
  6
CONTINUOUS
 10
7.783172
 20
7.473462
  0
VERTEX
  8
ڲ-3
  6
CONTINUOUS
 10
7.769308
 20
7.545757
  0
VERTEX
  8
ڲ-3
  6
CONTINUOUS
 10
7.754272
 20
7.617954
  0
VERTEX
  8
ڲ-3
  6
CONTINUOUS
 10
7.738061
 20
7.690041
  0
VERTEX
  8
ڲ-3
  6
CONTINUOUS
 10
7.720673
 20
7.762004
  0
VERTEX
  8
ڲ-3
  6
CONTINUOUS
 10
7.702108
 20
7.833830
  0
VERTEX
  8
ڲ-3
  6
CONTINUOUS
 10
7.682362
 20
7.905506
  0
VERTEX
  8
ڲ-3
  6
CONTINUOUS
 10
7.661434
 20
7.977019
  0
VERTEX
  8
ڲ-3
  6
CONTINUOUS
 10
7.639322
 20
8.048356
  0
VERTEX
  8
ڲ-3
  6
CONTINUOUS
 10
7.616025
 20
8.119504
  0
VERTEX
  8
ڲ-3
  6
CONTINUOUS
 10
7.591540
 20
8.190451
  0
VERTEX
  8
ڲ-3
  6
CONTINUOUS
 10
7.565865
 20
8.261182
  0
VERTEX
  8
ڲ-3
  6
CONTINUOUS
 10
7.538999
 20
8.331685
  0
VERTEX
  8
ڲ-3
  6
CONTINUOUS
 10
7.510940
 20
8.401948
  0
VERTEX
  8
ڲ-3
  6
CONTINUOUS
 10
7.481686
 20
8.471956
  0
VERTEX
  8
ڲ-3
  6
CONTINUOUS
 10
7.451234
 20
8.541697
  0
VERTEX
  8
ڲ-3
  6
CONTINUOUS
 10
7.419585
 20
8.611158
  0
VERTEX
  8
ڲ-3
  6
CONTINUOUS
 10
7.389940
 20
8.673555
  0
VERTEX
  8
ڲ-3
  6
CONTINUOUS
 10
7.359501
 20
8.735317
  0
VERTEX
  8
ڲ-3
  6
CONTINUOUS
 10
7.328275
 20
8.796441
  0
VERTEX
  8
ڲ-3
  6
CONTINUOUS
 10
7.296273
 20
8.856923
  0
VERTEX
  8
ڲ-3
  6
CONTINUOUS
 10
7.263502
 20
8.916761
  0
VERTEX
  8
ڲ-3
  6
CONTINUOUS
 10
7.229972
 20
8.975951
  0
VERTEX
  8
ڲ-3
  6
CONTINUOUS
 10
7.195692
 20
9.034490
  0
VERTEX
  8
ڲ-3
  6
CONTINUOUS
 10
7.160671
 20
9.092374
  0
VERTEX
  8
ڲ-3
  6
CONTINUOUS
 10
7.124917
 20
9.149601
  0
VERTEX
  8
ڲ-3
  6
CONTINUOUS
 10
7.088441
 20
9.206168
  0
VERTEX
  8
ڲ-3
  6
CONTINUOUS
 10
7.051250
 20
9.262070
  0
VERTEX
  8
ڲ-3
  6
CONTINUOUS
 10
7.013353
 20
9.317305
  0
VERTEX
  8
ڲ-3
  6
CONTINUOUS
 10
6.974760
 20
9.371870
  0
VERTEX
  8
ڲ-3
  6
CONTINUOUS
 10
6.935480
 20
9.425761
  0
VERTEX
  8
ڲ-3
  6
CONTINUOUS
 10
6.895521
 20
9.478976
  0
VERTEX
  8
ڲ-3
  6
CONTINUOUS
 10
6.854893
 20
9.531510
  0
VERTEX
  8
ڲ-3
  6
CONTINUOUS
 10
6.813604
 20
9.583361
  0
VERTEX
  8
ڲ-3
  6
CONTINUOUS
 10
6.771663
 20
9.634525
  0
VERTEX
  8
ڲ-3
  6
CONTINUOUS
 10
6.729080
 20
9.685000
  0
VERTEX
  8
ڲ-3
  6
CONTINUOUS
 10
6.685863
 20
9.734782
  0
VERTEX
  8
ڲ-3
  6
CONTINUOUS
 10
6.642022
 20
9.783867
  0
VERTEX
  8
ڲ-3
  6
CONTINUOUS
 10
6.597564
 20
9.832254
  0
VERTEX
  8
ڲ-3
  6
CONTINUOUS
 10
6.552500
 20
9.879937
  0
VERTEX
  8
ڲ-3
  6
CONTINUOUS
 10
6.506838
 20
9.926915
  0
VERTEX
  8
ڲ-3
  6
CONTINUOUS
 10
6.460587
 20
9.973184
  0
VERTEX
  8
ڲ-3
  6
CONTINUOUS
 10
6.413756
 20
10.018740
  0
VERTEX
  8
ڲ-3
  6
CONTINUOUS
 10
6.366355
 20
10.063581
  0
VERTEX
  8
ڲ-3
  6
CONTINUOUS
 10
6.318391
 20
10.107703
  0
VERTEX
  8
ڲ-3
  6
CONTINUOUS
 10
6.269874
 20
10.151103
  0
VERTEX
  8
ڲ-3
  6
CONTINUOUS
 10
6.220813
 20
10.193778
  0
VERTEX
  8
ڲ-3
  6
CONTINUOUS
 10
6.171217
 20
10.235725
  0
VERTEX
  8
ڲ-3
  6
CONTINUOUS
 10
6.121095
 20
10.276940
  0
VERTEX
  8
ڲ-3
  6
CONTINUOUS
 10
6.070455
 20
10.317420
  0
VERTEX
  8
ڲ-3
  6
CONTINUOUS
 10
6.019308
 20
10.357162
  0
VERTEX
  8
ڲ-3
  6
CONTINUOUS
 10
5.967661
 20
10.396162
  0
VERTEX
  8
ڲ-3
  6
CONTINUOUS
 10
5.915523
 20
10.434419
  0
VERTEX
  8
ڲ-3
  6
CONTINUOUS
 10
5.862905
 20
10.471927
  0
VERTEX
  8
ڲ-3
  6
CONTINUOUS
 10
5.809814
 20
10.508685
  0
VERTEX
  8
ڲ-3
  6
CONTINUOUS
 10
5.756259
 20
10.544688
  0
VERTEX
  8
ڲ-3
  6
CONTINUOUS
 10
5.702250
 20
10.579934
  0
VERTEX
  8
ڲ-3
  6
CONTINUOUS
 10
5.647796
 20
10.614420
  0
VERTEX
  8
ڲ-3
  6
CONTINUOUS
 10
5.592905
 20
10.648141
  0
VERTEX
  8
ڲ-3
  6
CONTINUOUS
 10
5.537586
 20
10.681096
  0
VERTEX
  8
ڲ-3
  6
CONTINUOUS
 10
5.481849
 20
10.713280
  0
VERTEX
  8
ڲ-3
  6
CONTINUOUS
 10
5.425702
 20
10.744691
  0
VERTEX
  8
ڲ-3
  6
CONTINUOUS
 10
5.369155
 20
10.775324
  0
VERTEX
  8
ڲ-3
  6
CONTINUOUS
 10
5.312215
 20
10.805178
  0
VERTEX
  8
ڲ-3
  6
CONTINUOUS
 10
5.254893
 20
10.834249
  0
VERTEX
  8
ڲ-3
  6
CONTINUOUS
 10
5.197197
 20
10.862534
  0
VERTEX
  8
ڲ-3
  6
CONTINUOUS
 10
5.139136
 20
10.890029
  0
VERTEX
  8
ڲ-3
  6
CONTINUOUS
 10
5.080720
 20
10.916731
  0
VERTEX
  8
ڲ-3
  6
CONTINUOUS
 10
5.021956
 20
10.942636
  0
VERTEX
  8
ڲ-3
  6
CONTINUOUS
 10
4.962854
 20
10.967743
  0
VERTEX
  8
ڲ-3
  6
CONTINUOUS
 10
4.903423
 20
10.992047
  0
VERTEX
  8
ڲ-3
  6
CONTINUOUS
 10
4.843673
 20
11.015546
  0
VERTEX
  8
ڲ-3
  6
CONTINUOUS
 10
4.783611
 20
11.038235
  0
VERTEX
  8
ڲ-3
  6
CONTINUOUS
 10
4.723247
 20
11.060112
  0
VERTEX
  8
ڲ-3
  6
CONTINUOUS
 10
4.662589
 20
11.081174
  0
VERTEX
  8
ڲ-3
  6
CONTINUOUS
 10
4.601648
 20
11.101417
  0
VERTEX
  8
ڲ-3
  6
CONTINUOUS
 10
4.540431
 20
11.120839
  0
VERTEX
  8
ڲ-3
  6
CONTINUOUS
 10
4.478948
 20
11.139435
  0
VERTEX
  8
ڲ-3
  6
CONTINUOUS
 10
4.417208
 20
11.157203
  0
VERTEX
  8
ڲ-3
  6
CONTINUOUS
 10
4.355219
 20
11.174140
  0
VERTEX
  8
ڲ-3
  6
CONTINUOUS
 10
4.292991
 20
11.190242
  0
VERTEX
  8
ڲ-3
  6
CONTINUOUS
 10
4.230532
 20
11.205506
  0
VERTEX
  8
ڲ-3
  6
CONTINUOUS
 10
4.167852
 20
11.219929
  0
VERTEX
  8
ڲ-3
  6
CONTINUOUS
 10
4.104959
 20
11.233507
  0
VERTEX
  8
ڲ-3
  6
CONTINUOUS
 10
4.041863
 20
11.246238
  0
VERTEX
  8
ڲ-3
  6
CONTINUOUS
 10
3.978572
 20
11.258118
  0
VERTEX
  8
ڲ-3
  6
CONTINUOUS
 10
3.915096
 20
11.269143
  0
VERTEX
  8
ڲ-3
  6
CONTINUOUS
 10
3.851443
 20
11.279312
  0
VERTEX
  8
ڲ-3
  6
CONTINUOUS
 10
3.787622
 20
11.288620
  0
VERTEX
  8
ڲ-3
  6
CONTINUOUS
 10
3.723642
 20
11.297064
  0
VERTEX
  8
ڲ-3
  6
CONTINUOUS
 10
3.659512
 20
11.304642
  0
VERTEX
  8
ڲ-3
  6
CONTINUOUS
 10
3.595242
 20
11.311349
  0
VERTEX
  8
ڲ-3
  6
CONTINUOUS
 10
3.530840
 20
11.317183
  0
VERTEX
  8
ڲ-3
  6
CONTINUOUS
 10
3.466314
 20
11.322140
  0
VERTEX
  8
ڲ-3
  6
CONTINUOUS
 10
3.401675
 20
11.326217
  0
VERTEX
  8
ڲ-3
  6
CONTINUOUS
 10
3.336931
 20
11.329412
  0
VERTEX
  8
ڲ-3
  6
CONTINUOUS
 10
3.272091
 20
11.331720
  0
VERTEX
  8
ڲ-3
  6
CONTINUOUS
 10
3.207163
 20
11.333138
  0
VERTEX
  8
ڲ-3
  6
CONTINUOUS
 10
3.142158
 20
11.333664
  0
VERTEX
  8
ڲ-3
  6
CONTINUOUS
 10
3.077083
 20
11.333294
  0
VERTEX
  8
ڲ-3
  6
CONTINUOUS
 10
3.011948
 20
11.332025
  0
VERTEX
  8
ڲ-3
  6
CONTINUOUS
 10
2.946762
 20
11.329853
  0
VERTEX
  8
ڲ-3
  6
CONTINUOUS
 10
2.881534
 20
11.326776
  0
VERTEX
  8
ڲ-3
  6
CONTINUOUS
 10
2.816272
 20
11.322790
  0
VERTEX
  8
ڲ-3
  6
CONTINUOUS
 10
2.750986
 20
11.317892
  0
VERTEX
  8
ڲ-3
  6
CONTINUOUS
 10
2.685685
 20
11.312078
  0
VERTEX
  8
ڲ-3
  6
CONTINUOUS
 10
2.620377
 20
11.305346
  0
VERTEX
  8
ڲ-3
  6
CONTINUOUS
 10
2.555071
 20
11.297693
  0
VERTEX
  8
ڲ-3
  6
CONTINUOUS
 10
2.489777
 20
11.289114
  0
VERTEX
  8
ڲ-3
  6
CONTINUOUS
 10
2.424504
 20
11.279607
  0
VERTEX
  8
ڲ-3
  6
CONTINUOUS
 10
2.359260
 20
11.269169
  0
VERTEX
  8
ڲ-3
  6
CONTINUOUS
 10
2.294054
 20
11.257797
  0
VERTEX
  8
ڲ-3
  6
CONTINUOUS
 10
2.228895
 20
11.245486
  0
VERTEX
  8
ڲ-3
  6
CONTINUOUS
 10
2.163793
 20
11.232234
  0
VERTEX
  8
ڲ-3
  6
CONTINUOUS
 10
2.098756
 20
11.218038
  0
VERTEX
  8
ڲ-3
  6
CONTINUOUS
 10
2.033794
 20
11.202895
  0
VERTEX
  8
ڲ-3
  6
CONTINUOUS
 10
1.968914
 20
11.186801
  0
VERTEX
  8
ڲ-3
  6
CONTINUOUS
 10
1.904127
 20
11.169753
  0
VERTEX
  8
ڲ-3
  6
CONTINUOUS
 10
1.839440
 20
11.151748
  0
VERTEX
  8
ڲ-3
  6
CONTINUOUS
 10
1.774864
 20
11.132782
  0
VERTEX
  8
ڲ-3
  6
CONTINUOUS
 10
1.710407
 20
11.112853
  0
VERTEX
  8
ڲ-3
  6
CONTINUOUS
 10
1.646078
 20
11.091957
  0
VERTEX
  8
ڲ-3
  6
CONTINUOUS
 10
1.581885
 20
11.070091
  0
VERTEX
  8
ڲ-3
  6
CONTINUOUS
 10
1.517839
 20
11.047251
  0
VERTEX
  8
ڲ-3
  6
CONTINUOUS
 10
1.453947
 20
11.023436
  0
VERTEX
  8
ڲ-3
  6
CONTINUOUS
 10
1.390219
 20
10.998640
  0
VERTEX
  8
ڲ-3
  6
CONTINUOUS
 10
1.326664
 20
10.972862
  0
VERTEX
  8
ڲ-3
  6
CONTINUOUS
 10
1.263291
 20
10.946097
  0
VERTEX
  8
ڲ-3
  6
CONTINUOUS
 10
1.200108
 20
10.918343
  0
VERTEX
  8
ڲ-3
  6
CONTINUOUS
 10
1.137125
 20
10.889596
  0
VERTEX
  8
ڲ-3
  6
CONTINUOUS
 10
1.137125
 20
10.889596
  0
VERTEX
  8
ڲ-3
  6
CONTINUOUS
 10
1.134023
 20
10.888510
  0
VERTEX
  8
ڲ-3
  6
CONTINUOUS
 10
1.131851
 20
10.886494
  0
VERTEX
  8
ڲ-3
  6
CONTINUOUS
 10
1.128749
 20
10.885408
  0
VERTEX
  8
ڲ-3
  6
CONTINUOUS
 10
1.144036
 20
10.852126
  0
VERTEX
  8
ڲ-3
  6
CONTINUOUS
 10
1.162202
 20
10.812709
  0
VERTEX
  8
ڲ-3
  6
CONTINUOUS
 10
1.183163
 20
10.767331
  0
VERTEX
  8
ڲ-3
  6
CONTINUOUS
 10
1.206838
 20
10.716168
  0
VERTEX
  8
ڲ-3
  6
CONTINUOUS
 10
1.233146
 20
10.659395
  0
VERTEX
  8
ڲ-3
  6
CONTINUOUS
 10
1.262004
 20
10.597185
  0
VERTEX
  8
ڲ-3
  6
CONTINUOUS
 10
1.293330
 20
10.529716
  0
VERTEX
  8
ڲ-3
  6
CONTINUOUS
 10
1.327042
 20
10.457161
  0
VERTEX
  8
ڲ-3
  6
CONTINUOUS
 10
1.363059
 20
10.379695
  0
VERTEX
  8
ڲ-3
  6
CONTINUOUS
 10
1.401299
 20
10.297494
  0
VERTEX
  8
ڲ-3
  6
CONTINUOUS
 10
1.441679
 20
10.210732
  0
VERTEX
  8
ڲ-3
  6
CONTINUOUS
 10
1.484118
 20
10.119585
  0
VERTEX
  8
ڲ-3
  6
CONTINUOUS
 10
1.528534
 20
10.024226
  0
VERTEX
  8
ڲ-3
  6
CONTINUOUS
 10
1.574845
 20
9.924833
  0
VERTEX
  8
ڲ-3
  6
CONTINUOUS
 10
1.622969
 20
9.821578
  0
VERTEX
  8
ڲ-3
  6
CONTINUOUS
 10
1.626614
 20
9.822121
  0
VERTEX
  8
ڲ-3
  6
CONTINUOUS
 10
1.629794
 20
9.823129
  0
VERTEX
  8
ڲ-3
  6
CONTINUOUS
 10
1.633439
 20
9.823672
  0
VERTEX
  8
ڲ-3
  6
CONTINUOUS
 10
1.696326
 20
9.852280
  0
VERTEX
  8
ڲ-3
  6
CONTINUOUS
 10
1.759473
 20
9.879567
  0
VERTEX
  8
ڲ-3
  6
CONTINUOUS
 10
1.822865
 20
9.905542
  0
VERTEX
  8
ڲ-3
  6
CONTINUOUS
 10
1.886486
 20
9.930208
  0
VERTEX
  8
ڲ-3
  6
CONTINUOUS
 10
1.950320
 20
9.953572
  0
VERTEX
  8
ڲ-3
  6
CONTINUOUS
 10
2.014351
 20
9.975640
  0
VERTEX
  8
ڲ-3
  6
CONTINUOUS
 10
2.078565
 20
9.996417
  0
VERTEX
  8
ڲ-3
  6
CONTINUOUS
 10
2.142944
 20
10.015910
  0
VERTEX
  8
ڲ-3
  6
CONTINUOUS
 10
2.207473
 20
10.034123
  0
VERTEX
  8
ڲ-3
  6
CONTINUOUS
 10
2.272136
 20
10.051063
  0
VERTEX
  8
ڲ-3
  6
CONTINUOUS
 10
2.336918
 20
10.066736
  0
VERTEX
  8
ڲ-3
  6
CONTINUOUS
 10
2.401802
 20
10.081147
  0
VERTEX
  8
ڲ-3
  6
CONTINUOUS
 10
2.466773
 20
10.094302
  0
VERTEX
  8
ڲ-3
  6
CONTINUOUS
 10
2.531815
 20
10.106207
  0
VERTEX
  8
ڲ-3
  6
CONTINUOUS
 10
2.596911
 20
10.116867
  0
VERTEX
  8
ڲ-3
  6
CONTINUOUS
 10
2.662048
 20
10.126289
  0
VERTEX
  8
ڲ-3
  6
CONTINUOUS
 10
2.727207
 20
10.134478
  0
VERTEX
  8
ڲ-3
  6
CONTINUOUS
 10
2.792375
 20
10.141440
  0
VERTEX
  8
ڲ-3
  6
CONTINUOUS
 10
2.857534
 20
10.147180
  0
VERTEX
  8
ڲ-3
  6
CONTINUOUS
 10
2.922669
 20
10.151705
  0
VERTEX
  8
ڲ-3
  6
CONTINUOUS
 10
2.987764
 20
10.155021
  0
VERTEX
  8
ڲ-3
  6
CONTINUOUS
 10
3.052804
 20
10.157132
  0
VERTEX
  8
ڲ-3
  6
CONTINUOUS
 10
3.117772
 20
10.158045
  0
VERTEX
  8
ڲ-3
  6
CONTINUOUS
 10
3.182653
 20
10.157765
  0
VERTEX
  8
ڲ-3
  6
CONTINUOUS
 10
3.247431
 20
10.156299
  0
VERTEX
  8
ڲ-3
  6
CONTINUOUS
 10
3.312090
 20
10.153651
  0
VERTEX
  8
ڲ-3
  6
CONTINUOUS
 10
3.376615
 20
10.149829
  0
VERTEX
  8
ڲ-3
  6
CONTINUOUS
 10
3.440989
 20
10.144837
  0
VERTEX
  8
ڲ-3
  6
CONTINUOUS
 10
3.505197
 20
10.138682
  0
VERTEX
  8
ڲ-3
  6
CONTINUOUS
 10
3.569222
 20
10.131368
  0
VERTEX
  8
ڲ-3
  6
CONTINUOUS
 10
3.633050
 20
10.122903
  0
VERTEX
  8
ڲ-3
  6
CONTINUOUS
 10
3.696663
 20
10.113291
  0
VERTEX
  8
ڲ-3
  6
CONTINUOUS
 10
3.760048
 20
10.102539
  0
VERTEX
  8
ڲ-3
  6
CONTINUOUS
 10
3.823186
 20
10.090652
  0
VERTEX
  8
ڲ-3
  6
CONTINUOUS
 10
3.886064
 20
10.077636
  0
VERTEX
  8
ڲ-3
  6
CONTINUOUS
 10
3.948665
 20
10.063496
  0
VERTEX
  8
ڲ-3
  6
CONTINUOUS
 10
4.010972
 20
10.048239
  0
VERTEX
  8
ڲ-3
  6
CONTINUOUS
 10
4.072971
 20
10.031871
  0
VERTEX
  8
ڲ-3
  6
CONTINUOUS
 10
4.134646
 20
10.014396
  0
VERTEX
  8
ڲ-3
  6
CONTINUOUS
 10
4.195980
 20
9.995822
  0
VERTEX
  8
ڲ-3
  6
CONTINUOUS
 10
4.256959
 20
9.976153
  0
VERTEX
  8
ڲ-3
  6
CONTINUOUS
 10
4.317565
 20
9.955395
  0
VERTEX
  8
ڲ-3
  6
CONTINUOUS
 10
4.377783
 20
9.933554
  0
VERTEX
  8
ڲ-3
  6
CONTINUOUS
 10
4.437598
 20
9.910637
  0
VERTEX
  8
ڲ-3
  6
CONTINUOUS
 10
4.496994
 20
9.886648
  0
VERTEX
  8
ڲ-3
  6
CONTINUOUS
 10
4.555955
 20
9.861593
  0
VERTEX
  8
ڲ-3
  6
CONTINUOUS
 10
4.614464
 20
9.835479
  0
VERTEX
  8
ڲ-3
  6
CONTINUOUS
 10
4.672507
 20
9.808311
  0
VERTEX
  8
ڲ-3
  6
CONTINUOUS
 10
4.730067
 20
9.780094
  0
VERTEX
  8
ڲ-3
  6
CONTINUOUS
 10
4.787128
 20
9.750835
  0
VERTEX
  8
ڲ-3
  6
CONTINUOUS
 10
4.843676
 20
9.720539
  0
VERTEX
  8
ڲ-3
  6
CONTINUOUS
 10
4.899693
 20
9.689213
  0
VERTEX
  8
ڲ-3
  6
CONTINUOUS
 10
4.955164
 20
9.656861
  0
VERTEX
  8
ڲ-3
  6
CONTINUOUS
 10
5.010074
 20
9.623490
  0
VERTEX
  8
ڲ-3
  6
CONTINUOUS
 10
5.064406
 20
9.589105
  0
VERTEX
  8
ڲ-3
  6
CONTINUOUS
 10
5.118145
 20
9.553712
  0
VERTEX
  8
ڲ-3
  6
CONTINUOUS
 10
5.171275
 20
9.517318
  0
VERTEX
  8
ڲ-3
  6
CONTINUOUS
 10
5.223779
 20
9.479926
  0
VERTEX
  8
ڲ-3
  6
CONTINUOUS
 10
5.275643
 20
9.441545
  0
VERTEX
  8
ڲ-3
  6
CONTINUOUS
 10
5.326850
 20
9.402178
  0
VERTEX
  8
ڲ-3
  6
CONTINUOUS
 10
5.377385
 20
9.361833
  0
VERTEX
  8
ڲ-3
  6
CONTINUOUS
 10
5.427232
 20
9.320514
  0
VERTEX
  8
ڲ-3
  6
CONTINUOUS
 10
5.476375
 20
9.278228
  0
VERTEX
  8
ڲ-3
  6
CONTINUOUS
 10
5.524797
 20
9.234981
  0
VERTEX
  8
ڲ-3
  6
CONTINUOUS
 10
5.572484
 20
9.190777
  0
VERTEX
  8
ڲ-3
  6
CONTINUOUS
 10
5.619420
 20
9.145623
  0
VERTEX
  8
ڲ-3
  6
CONTINUOUS
 10
5.665588
 20
9.099525
  0
VERTEX
  8
ڲ-3
  6
CONTINUOUS
 10
5.710973
 20
9.052488
  0
VERTEX
  8
ڲ-3
  6
CONTINUOUS
 10
5.755560
 20
9.004518
  0
VERTEX
  8
ڲ-3
  6
CONTINUOUS
 10
5.799331
 20
8.955621
  0
VERTEX
  8
ڲ-3
  6
CONTINUOUS
 10
5.842272
 20
8.905803
  0
VERTEX
  8
ڲ-3
  6
CONTINUOUS
 10
5.884366
 20
8.855070
  0
VERTEX
  8
ڲ-3
  6
CONTINUOUS
 10
5.925599
 20
8.803426
  0
VERTEX
  8
ڲ-3
  6
CONTINUOUS
 10
5.965953
 20
8.750879
  0
VERTEX
  8
ڲ-3
  6
CONTINUOUS
 10
6.005414
 20
8.697433
  0
VERTEX
  8
ڲ-3
  6
CONTINUOUS
 10
6.043964
 20
8.643095
  0
VERTEX
  8
ڲ-3
  6
CONTINUOUS
 10
6.081590
 20
8.587870
  0
VERTEX
  8
ڲ-3
  6
CONTINUOUS
 10
6.118274
 20
8.531764
  0
VERTEX
  8
ڲ-3
  6
CONTINUOUS
 10
6.154001
 20
8.474784
  0
VERTEX
  8
ڲ-3
  6
CONTINUOUS
 10
6.188755
 20
8.416933
  0
VERTEX
  8
ڲ-3
  6
CONTINUOUS
 10
6.222520
 20
8.358220
  0
VERTEX
  8
ڲ-3
  6
CONTINUOUS
 10
6.255281
 20
8.298648
  0
VERTEX
  8
ڲ-3
  6
CONTINUOUS
 10
6.287022
 20
8.238224
  0
VERTEX
  8
ڲ-3
  6
CONTINUOUS
 10
6.317726
 20
8.176954
  0
VERTEX
  8
ڲ-3
  6
CONTINUOUS
 10
6.347378
 20
8.114843
  0
VERTEX
  8
ڲ-3
  6
CONTINUOUS
 10
6.347378
 20
8.114843
  0
VERTEX
  8
ڲ-3
  6
CONTINUOUS
 10
6.379674
 20
8.043249
  0
VERTEX
  8
ڲ-3
  6
CONTINUOUS
 10
6.410311
 20
7.971269
  0
VERTEX
  8
ڲ-3
  6
CONTINUOUS
 10
6.439294
 20
7.898932
  0
VERTEX
  8
ڲ-3
  6
CONTINUOUS
 10
6.466627
 20
7.826269
  0
VERTEX
  8
ڲ-3
  6
CONTINUOUS
 10
6.492312
 20
7.753308
  0
VERTEX
  8
ڲ-3
  6
CONTINUOUS
 10
6.516353
 20
7.680079
  0
VERTEX
  8
ڲ-3
  6
CONTINUOUS
 10
6.538754
 20
7.606612
  0
VERTEX
  8
ڲ-3
  6
CONTINUOUS
 10
6.559519
 20
7.532936
  0
VERTEX
  8
ڲ-3
  6
CONTINUOUS
 10
6.578650
 20
7.459081
  0
VERTEX
  8
ڲ-3
  6
CONTINUOUS
 10
6.596151
 20
7.385076
  0
VERTEX
  8
ڲ-3
  6
CONTINUOUS
 10
6.612027
 20
7.310950
  0
VERTEX
  8
ڲ-3
  6
CONTINUOUS
 10
6.626280
 20
7.236734
  0
VERTEX
  8
ڲ-3
  6
CONTINUOUS
 10
6.638914
 20
7.162456
  0
VERTEX
  8
ڲ-3
  6
CONTINUOUS
 10
6.649932
 20
7.088147
  0
VERTEX
  8
ڲ-3
  6
CONTINUOUS
 10
6.659339
 20
7.013835
  0
VERTEX
  8
ڲ-3
  6
CONTINUOUS
 10
6.667137
 20
6.939550
  0
VERTEX
  8
ڲ-3
  6
CONTINUOUS
 10
6.673330
 20
6.865322
  0
VERTEX
  8
ڲ-3
  6
CONTINUOUS
 10
6.677922
 20
6.791180
  0
VERTEX
  8
ڲ-3
  6
CONTINUOUS
 10
6.680917
 20
6.717153
  0
VERTEX
  8
ڲ-3
  6
CONTINUOUS
 10
6.682317
 20
6.643272
  0
VERTEX
  8
ڲ-3
  6
CONTINUOUS
 10
6.682126
 20
6.569565
  0
VERTEX
  8
ڲ-3
  6
CONTINUOUS
 10
6.680348
 20
6.496063
  0
VERTEX
  8
ڲ-3
  6
CONTINUOUS
 10
6.695681
 20
6.495192
  0
VERTEX
  8
ڲ-3
  6
CONTINUOUS
 10
6.738065
 20
6.493505
  0
VERTEX
  8
ڲ-3
  6
CONTINUOUS
 10
6.803334
 20
6.491138
  0
VERTEX
  8
ڲ-3
  6
CONTINUOUS
 10
6.887322
 20
6.488222
  0
VERTEX
  8
ڲ-3
  6
CONTINUOUS
 10
6.985862
 20
6.484894
  0
VERTEX
  8
ڲ-3
  6
CONTINUOUS
 10
7.094790
 20
6.481287
  0
VERTEX
  8
ڲ-3
  6
CONTINUOUS
 10
7.209938
 20
6.477534
  0
VERTEX
  8
ڲ-3
  6
CONTINUOUS
 10
7.327142
 20
6.473770
  0
VERTEX
  8
ڲ-3
  6
CONTINUOUS
 10
7.442235
 20
6.470129
  0
VERTEX
  8
ڲ-3
  6
CONTINUOUS
 10
7.551051
 20
6.466745
  0
VERTEX
  8
ڲ-3
  6
CONTINUOUS
 10
7.649424
 20
6.463752
  0
VERTEX
  8
ڲ-3
  6
CONTINUOUS
 10
7.733188
 20
6.461283
  0
VERTEX
  8
ڲ-3
  6
CONTINUOUS
 10
7.798178
 20
6.459474
  0
VERTEX
  8
ڲ-3
  6
CONTINUOUS
 10
7.840226
 20
6.458458
  0
VERTEX
  8
ڲ-3
  6
CONTINUOUS
 10
7.855168
 20
6.458368
  0
SEQEND
  8
0
  0
POLYLINE
  8
ڲ-3
  6
DOT
 66
     1
 40
0.012565
 41
0.012565
  0
VERTEX
  8
ڲ-3
  6
DOT
 10
7.023790
 20
5.208159
  0
VERTEX
  8
ڲ-3
  6
DOT
 10
7.050092
 20
5.280479
  0
VERTEX
  8
ڲ-3
  6
DOT
 10
7.075039
 20
5.353299
  0
VERTEX
  8
ڲ-3
  6
DOT
 10
7.098623
 20
5.426594
  0
VERTEX
  8
ڲ-3
  6
DOT
 10
7.120836
 20
5.500341
  0
VERTEX
  8
ڲ-3
  6
DOT
 10
7.141670
 20
5.574518
  0
VERTEX
  8
ڲ-3
  6
DOT
 10
7.161119
 20
5.649102
  0
VERTEX
  8
ڲ-3
  6
DOT
 10
7.179173
 20
5.724070
  0
VERTEX
  8
ڲ-3
  6
DOT
 10
7.195826
 20
5.799398
  0
VERTEX
  8
ڲ-3
  6
DOT
 10
7.211070
 20
5.875064
  0
VERTEX
  8
ڲ-3
  6
DOT
 10
7.224897
 20
5.951044
  0
VERTEX
  8
ڲ-3
  6
DOT
 10
7.237300
 20
6.027316
  0
VERTEX
  8
ڲ-3
  6
DOT
 10
7.248270
 20
6.103856
  0
VERTEX
  8
ڲ-3
  6
DOT
 10
7.257801
 20
6.180642
  0
VERTEX
  8
ڲ-3
  6
DOT
 10
7.265884
 20
6.257651
  0
VERTEX
  8
ڲ-3
  6
DOT
 10
7.272511
 20
6.334858
  0
VERTEX
  8
ڲ-3
  6
DOT
 10
7.277676
 20
6.412243
  0
VERTEX
  8
ڲ-3
  6
DOT
 10
7.281370
 20
6.489781
  0
SEQEND
  8
0
  0
POLYLINE
  8
ڲ-3
  6
DOT
 66
     1
 40
0.012565
 41
0.012565
  0
VERTEX
  8
ڲ-3
  6
DOT
 10
7.281370
 20
6.489781
  0
VERTEX
  8
ڲ-3
  6
DOT
 10
7.283851
 20
6.562593
  0
VERTEX
  8
ڲ-3
  6
DOT
 10
7.285007
 20
6.635552
  0
VERTEX
  8
ڲ-3
  6
DOT
 10
7.284833
 20
6.708641
  0
VERTEX
  8
ڲ-3
  6
DOT
 10
7.283324
 20
6.781839
  0
VERTEX
  8
ڲ-3
  6
DOT
 10
7.280476
 20
6.855127
  0
VERTEX
  8
ڲ-3
  6
DOT
 10
7.276283
 20
6.928486
  0
VERTEX
  8
ڲ-3
  6
DOT
 10
7.270741
 20
7.001896
  0
VERTEX
  8
ڲ-3
  6
DOT
 10
7.263843
 20
7.075339
  0
VERTEX
  8
ڲ-3
  6
DOT
 10
7.255586
 20
7.148794
  0
VERTEX
  8
ڲ-3
  6
DOT
 10
7.245964
 20
7.222243
  0
VERTEX
  8
ڲ-3
  6
DOT
 10
7.234973
 20
7.295666
  0
VERTEX
  8
ڲ-3
  6
DOT
 10
7.222606
 20
7.369045
  0
VERTEX
  8
ڲ-3
  6
DOT
 10
7.208860
 20
7.442358
  0
VERTEX
  8
ڲ-3
  6
DOT
 10
7.193730
 20
7.515589
  0
VERTEX
  8
ڲ-3
  6
DOT
 10
7.177209
 20
7.588716
  0
VERTEX
  8
ڲ-3
  6
DOT
 10
7.159294
 20
7.661721
  0
VERTEX
  8
ڲ-3
  6
DOT
 10
7.139979
 20
7.734584
  0
VERTEX
  8
ڲ-3
  6
DOT
 10
7.119259
 20
7.807287
  0
VERTEX
  8
ڲ-3
  6
DOT
 10
7.097129
 20
7.879809
  0
VERTEX
  8
ڲ-3
  6
DOT
 10
7.073585
 20
7.952132
  0
VERTEX
  8
ڲ-3
  6
DOT
 10
7.048621
 20
8.024237
  0
VERTEX
  8
ڲ-3
  6
DOT
 10
7.022232
 20
8.096103
  0
VERTEX
  8
ڲ-3
  6
DOT
 10
6.994413
 20
8.167712
  0
VERTEX
  8
ڲ-3
  6
DOT
 10
6.965160
 20
8.239044
  0
VERTEX
  8
ڲ-3
  6
DOT
 10
6.934467
 20
8.310080
  0
VERTEX
  8
ڲ-3
  6
DOT
 10
6.902329
 20
8.380801
  0
SEQEND
  8
0
  0
POLYLINE
  8
ڲ-3
  6
DOT
 66
     1
 40
0.012565
 41
0.012565
  0
VERTEX
  8
ڲ-3
  6
DOT
 10
6.902329
 20
8.380801
  0
VERTEX
  8
ڲ-3
  6
DOT
 10
6.872615
 20
8.443138
  0
VERTEX
  8
ڲ-3
  6
DOT
 10
6.841991
 20
8.504752
  0
VERTEX
  8
ڲ-3
  6
DOT
 10
6.810470
 20
8.565638
  0
VERTEX
  8
ڲ-3
  6
DOT
 10
6.778061
 20
8.625792
  0
VERTEX
  8
ڲ-3
  6
DOT
 10
6.744778
 20
8.685210
  0
VERTEX
  8
ڲ-3
  6
DOT
 10
6.710632
 20
8.743888
  0
VERTEX
  8
ڲ-3
  6
DOT
 10
6.675635
 20
8.801820
  0
VERTEX
  8
ڲ-3
  6
DOT
 10
6.639798
 20
8.859004
  0
VERTEX
  8
ڲ-3
  6
DOT
 10
6.603134
 20
8.915434
  0
VERTEX
  8
ڲ-3
  6
DOT
 10
6.565654
 20
8.971107
  0
VERTEX
  8
ڲ-3
  6
DOT
 10
6.527369
 20
9.026018
  0
VERTEX
  8
ڲ-3
  6
DOT
 10
6.488292
 20
9.080163
  0
VERTEX
  8
ڲ-3
  6
DOT
 10
6.448434
 20
9.133538
  0
VERTEX
  8
ڲ-3
  6
DOT
 10
6.407808
 20
9.186138
  0
VERTEX
  8
ڲ-3
  6
DOT
 10
6.366424
 20
9.237959
  0
VERTEX
  8
ڲ-3
  6
DOT
 10
6.324295
 20
9.288997
  0
VERTEX
  8
ڲ-3
  6
DOT
 10
6.281433
 20
9.339248
  0
VERTEX
  8
ڲ-3
  6
DOT
 10
6.237848
 20
9.388707
  0
VERTEX
  8
ڲ-3
  6
DOT
 10
6.193553
 20
9.437370
  0
VERTEX
  8
ڲ-3
  6
DOT
 10
6.148560
 20
9.485233
  0
VERTEX
  8
ڲ-3
  6
DOT
 10
6.102881
 20
9.532292
  0
VERTEX
  8
ڲ-3
  6
DOT
 10
6.056526
 20
9.578541
  0
VERTEX
  8
ڲ-3
  6
DOT
 10
6.009509
 20
9.623978
  0
VERTEX
  8
ڲ-3
  6
DOT
 10
5.961840
 20
9.668598
  0
VERTEX
  8
ڲ-3
  6
DOT
 10
5.913532
 20
9.712397
  0
VERTEX
  8
ڲ-3
  6
DOT
 10
5.864595
 20
9.755369
  0
VERTEX
  8
ڲ-3
  6
DOT
 10
5.815043
 20
9.797512
  0
VERTEX
  8
ڲ-3
  6
DOT
 10
5.764887
 20
9.838820
  0
VERTEX
  8
ڲ-3
  6
DOT
 10
5.714137
 20
9.879290
  0
VERTEX
  8
ڲ-3
  6
DOT
 10
5.662808
 20
9.918917
  0
VERTEX
  8
ڲ-3
  6
DOT
 10
5.610909
 20
9.957698
  0
VERTEX
  8
ڲ-3
  6
DOT
 10
5.558453
 20
9.995626
  0
VERTEX
  8
ڲ-3
  6
DOT
 10
5.505451
 20
10.032700
  0
VERTEX
  8
ڲ-3
  6
DOT
 10
5.451916
 20
10.068913
  0
VERTEX
  8
ڲ-3
  6
DOT
 10
5.397858
 20
10.104263
  0
VERTEX
  8
ڲ-3
  6
DOT
 10
5.343291
 20
10.138744
  0
VERTEX
  8
ڲ-3
  6
DOT
 10
5.288225
 20
10.172353
  0
VERTEX
  8
ڲ-3
  6
DOT
 10
5.232672
 20
10.205084
  0
VERTEX
  8
ڲ-3
  6
DOT
 10
5.176644
 20
10.236935
  0
VERTEX
  8
ڲ-3
  6
DOT
 10
5.120153
 20
10.267900
  0
VERTEX
  8
ڲ-3
  6
DOT
 10
5.063211
 20
10.297976
  0
VERTEX
  8
ڲ-3
  6
DOT
 10
5.005829
 20
10.327158
  0
VERTEX
  8
ڲ-3
  6
DOT
 10
4.948019
 20
10.355441
  0
VERTEX
  8
ڲ-3
  6
DOT
 10
4.889793
 20
10.382823
  0
VERTEX
  8
ڲ-3
  6
DOT
 10
4.831162
 20
10.409297
  0
VERTEX
  8
ڲ-3
  6
DOT
 10
4.772139
 20
10.434861
  0
VERTEX
  8
ڲ-3
  6
DOT
 10
4.712735
 20
10.459509
  0
VERTEX
  8
ڲ-3
  6
DOT
 10
4.652962
 20
10.483238
  0
VERTEX
  8
ڲ-3
  6
DOT
 10
4.592832
 20
10.506044
  0
VERTEX
  8
ڲ-3
  6
DOT
 10
4.532356
 20
10.527921
  0
VERTEX
  8
ڲ-3
  6
DOT
 10
4.471546
 20
10.548866
  0
VERTEX
  8
ڲ-3
  6
DOT
 10
4.410414
 20
10.568875
  0
VERTEX
  8
ڲ-3
  6
DOT
 10
4.348971
 20
10.587943
  0
VERTEX
  8
ڲ-3
  6
DOT
 10
4.287230
 20
10.606066
  0
VERTEX
  8
ڲ-3
  6
DOT
 10
4.225202
 20
10.623240
  0
VERTEX
  8
ڲ-3
  6
DOT
 10
4.162900
 20
10.639460
  0
VERTEX
  8
ڲ-3
  6
DOT
 10
4.100333
 20
10.654722
  0
VERTEX
  8
ڲ-3
  6
DOT
 10
4.037516
 20
10.669022
  0
VERTEX
  8
ڲ-3
  6
DOT
 10
3.974458
 20
10.682356
  0
VERTEX
  8
ڲ-3
  6
DOT
 10
3.911173
 20
10.694720
  0
VERTEX
  8
ڲ-3
  6
DOT
 10
3.847671
 20
10.706108
  0
VERTEX
  8
ڲ-3
  6
DOT
 10
3.783965
 20
10.716518
  0
VERTEX
  8
ڲ-3
  6
DOT
 10
3.720066
 20
10.725944
  0
VERTEX
  8
ڲ-3
  6
DOT
 10
3.655986
 20
10.734382
  0
VERTEX
  8
ڲ-3
  6
DOT
 10
3.591736
 20
10.741829
  0
VERTEX
  8
ڲ-3
  6
DOT
 10
3.527329
 20
10.748280
  0
VERTEX
  8
ڲ-3
  6
DOT
 10
3.462777
 20
10.753730
  0
VERTEX
  8
ڲ-3
  6
DOT
 10
3.398091
 20
10.758175
  0
VERTEX
  8
ڲ-3
  6
DOT
 10
3.333282
 20
10.761612
  0
VERTEX
  8
ڲ-3
  6
DOT
 10
3.268363
 20
10.764035
  0
VERTEX
  8
ڲ-3
  6
DOT
 10
3.203345
 20
10.765441
  0
VERTEX
  8
ڲ-3
  6
DOT
 10
3.138240
 20
10.765826
  0
VERTEX
  8
ڲ-3
  6
DOT
 10
3.073060
 20
10.765184
  0
VERTEX
  8
ڲ-3
  6
DOT
 10
3.007817
 20
10.763512
  0
VERTEX
  8
ڲ-3
  6
DOT
 10
2.942522
 20
10.760806
  0
VERTEX
  8
ڲ-3
  6
DOT
 10
2.877187
 20
10.757061
  0
VERTEX
  8
ڲ-3
  6
DOT
 10
2.811824
 20
10.752273
  0
VERTEX
  8
ڲ-3
  6
DOT
 10
2.746445
 20
10.746437
  0
VERTEX
  8
ڲ-3
  6
DOT
 10
2.681061
 20
10.739550
  0
VERTEX
  8
ڲ-3
  6
DOT
 10
2.615684
 20
10.731608
  0
VERTEX
  8
ڲ-3
  6
DOT
 10
2.550326
 20
10.722605
  0
VERTEX
  8
ڲ-3
  6
DOT
 10
2.484999
 20
10.712538
  0
VERTEX
  8
ڲ-3
  6
DOT
 10
2.419714
 20
10.701403
  0
VERTEX
  8
ڲ-3
  6
DOT
 10
2.354483
 20
10.689194
  0
VERTEX
  8
ڲ-3
  6
DOT
 10
2.289318
 20
10.675909
  0
VERTEX
  8
ڲ-3
  6
DOT
 10
2.224231
 20
10.661542
  0
VERTEX
  8
ڲ-3
  6
DOT
 10
2.159233
 20
10.646090
  0
VERTEX
  8
ڲ-3
  6
DOT
 10
2.094337
 20
10.629548
  0
VERTEX
  8
ڲ-3
  6
DOT
 10
2.029553
 20
10.611912
  0
VERTEX
  8
ڲ-3
  6
DOT
 10
1.964895
 20
10.593177
  0
VERTEX
  8
ڲ-3
  6
DOT
 10
1.900372
 20
10.573339
  0
VERTEX
  8
ڲ-3
  6
DOT
 10
1.835998
 20
10.552395
  0
VERTEX
  8
ڲ-3
  6
DOT
 10
1.771784
 20
10.530340
  0
VERTEX
  8
ڲ-3
  6
DOT
 10
1.707742
 20
10.507169
  0
VERTEX
  8
ڲ-3
  6
DOT
 10
1.643883
 20
10.482879
  0
VERTEX
  8
ڲ-3
  6
DOT
 10
1.580219
 20
10.457464
  0
VERTEX
  8
ڲ-3
  6
DOT
 10
1.516763
 20
10.430921
  0
VERTEX
  8
ڲ-3
  6
DOT
 10
1.453525
 20
10.403246
  0
VERTEX
  8
ڲ-3
  6
DOT
 10
1.390518
 20
10.374435
  0
SEQEND
  8
0
  0
SOLID
  8
ڲ-3
 10
6.734796
 20
6.500251
 11
6.695008
 21
6.571453
 12
6.734796
 22
6.500251
 13
6.778774
 23
6.569358
  0
POLYLINE
  8
ڲ-3
  6
CONTINUOUS
 66
     1
 40
0.012565
 41
0.012565
  0
VERTEX
  8
ڲ-3
  6
CONTINUOUS
 10
6.734796
 20
6.500251
  0
VERTEX
  8
ڲ-3
  6
CONTINUOUS
 10
6.695008
 20
6.571453
  0
VERTEX
  8
ڲ-3
  6
CONTINUOUS
 10
6.778774
 20
6.569358
  0
VERTEX
  8
ڲ-3
  6
CONTINUOUS
 10
6.734796
 20
6.500251
  0
SEQEND
  8
0
  0
SOLID
  8
ڲ-3
 10
7.800720
 20
6.464651
 11
7.760931
 21
6.535852
 12
7.800720
 22
6.464651
 13
7.844698
 23
6.533758
  0
POLYLINE
  8
ڲ-3
  6
CONTINUOUS
 66
     1
 40
0.012565
 41
0.012565
  0
VERTEX
  8
ڲ-3
  6
CONTINUOUS
 10
7.800720
 20
6.464651
  0
VERTEX
  8
ڲ-3
  6
CONTINUOUS
 10
7.760931
 20
6.535852
  0
VERTEX
  8
ڲ-3
  6
CONTINUOUS
 10
7.844698
 20
6.533758
  0
VERTEX
  8
ڲ-3
  6
CONTINUOUS
 10
7.800720
 20
6.464651
  0
SEQEND
  8
0
  0
SOLID
  8
ڲ-3
 10
1.153878
 20
10.837242
 11
1.199950
 21
10.904255
 12
1.153878
 22
10.837242
 13
1.235550
 23
10.830960
  0
POLYLINE
  8
ڲ-3
  6
CONTINUOUS
 66
     1
 40
0.012565
 41
0.012565
  0
VERTEX
  8
ڲ-3
  6
CONTINUOUS
 10
1.153878
 20
10.837242
  0
VERTEX
  8
ڲ-3
  6
CONTINUOUS
 10
1.199950
 20
10.904255
  0
VERTEX
  8
ڲ-3
  6
CONTINUOUS
 10
1.235550
 20
10.830960
  0
VERTEX
  8
ڲ-3
  6
CONTINUOUS
 10
1.153878
 20
10.837242
  0
SEQEND
  8
0
  0
SOLID
  8
ڲ-3
 10
1.606215
 20
9.873932
 11
1.652287
 21
9.940945
 12
1.606215
 22
9.873932
 13
1.687887
 23
9.865555
  0
POLYLINE
  8
ڲ-3
  6
CONTINUOUS
 66
     1
 40
0.012565
 41
0.012565
  0
VERTEX
  8
ڲ-3
  6
CONTINUOUS
 10
1.606215
 20
9.873932
  0
VERTEX
  8
ڲ-3
  6
CONTINUOUS
 10
1.652287
 20
9.940945
  0
VERTEX
  8
ڲ-3
  6
CONTINUOUS
 10
1.687887
 20
9.865555
  0
VERTEX
  8
ڲ-3
  6
CONTINUOUS
 10
1.606215
 20
9.873932
  0
SEQEND
  8
0
  0
TEXT
  8
ڲ-3
 10
7.566175
 20
6.414391
 40
0.129172
  1
For applying paste.
 50
257.290576
 41
1.000000
  7
SN0
 71
     0
 72
     5
 11
7.279561
 21
5.143752
  0
POLYLINE
  8
ڲ-3
  6
CONTINUOUS
 66
     1
 40
0.012565
 41
0.012565
  0
VERTEX
  8
ڲ-3
  6
CONTINUOUS
 10
5.239571
 20
2.054364
  0
VERTEX
  8
ڲ-3
  6
CONTINUOUS
 10
5.284297
 20
2.118544
  0
VERTEX
  8
ڲ-3
  6
CONTINUOUS
 10
5.327874
 20
2.183442
  0
VERTEX
  8
ڲ-3
  6
CONTINUOUS
 10
5.370302
 20
2.249045
  0
VERTEX
  8
ڲ-3
  6
CONTINUOUS
 10
5.411582
 20
2.315341
  0
VERTEX
  8
ڲ-3
  6
CONTINUOUS
 10
5.451713
 20
2.382316
  0
VERTEX
  8
ڲ-3
  6
CONTINUOUS
 10
5.490695
 20
2.449959
  0
VERTEX
  8
ڲ-3
  6
CONTINUOUS
 10
5.528529
 20
2.518255
  0
VERTEX
  8
ڲ-3
  6
CONTINUOUS
 10
5.565215
 20
2.587192
  0
VERTEX
  8
ڲ-3
  6
CONTINUOUS
 10
5.600752
 20
2.656758
  0
VERTEX
  8
ڲ-3
  6
CONTINUOUS
 10
5.635140
 20
2.726939
  0
VERTEX
  8
ڲ-3
  6
CONTINUOUS
 10
5.668379
 20
2.797723
  0
VERTEX
  8
ڲ-3
  6
CONTINUOUS
 10
5.700470
 20
2.869096
  0
VERTEX
  8
ڲ-3
  6
CONTINUOUS
 10
5.731413
 20
2.941047
  0
VERTEX
  8
ڲ-3
  6
CONTINUOUS
 10
5.761207
 20
3.013562
  0
VERTEX
  8
ڲ-3
  6
CONTINUOUS
 10
5.789852
 20
3.086628
  0
VERTEX
  8
ڲ-3
  6
CONTINUOUS
 10
5.817349
 20
3.160233
  0
VERTEX
  8
ڲ-3
  6
CONTINUOUS
 10
5.843697
 20
3.234364
  0
VERTEX
  8
ڲ-3
  6
CONTINUOUS
 10
5.868896
 20
3.309008
  0
VERTEX
  8
ڲ-3
  6
CONTINUOUS
 10
5.892947
 20
3.384151
  0
VERTEX
  8
ڲ-3
  6
CONTINUOUS
 10
5.878227
 20
3.388580
  0
VERTEX
  8
ڲ-3
  6
CONTINUOUS
 10
5.837566
 20
3.401039
  0
VERTEX
  8
ڲ-3
  6
CONTINUOUS
 10
5.774954
 20
3.420288
  0
VERTEX
  8
ڲ-3
  6
CONTINUOUS
 10
5.694383
 20
3.445089
  0
VERTEX
  8
ڲ-3
  6
CONTINUOUS
 10
5.599843
 20
3.474200
  0
VERTEX
  8
ڲ-3
  6
CONTINUOUS
 10
5.495326
 20
3.506383
  0
VERTEX
  8
ڲ-3
  6
CONTINUOUS
 10
5.384822
 20
3.540398
  0
VERTEX
  8
ڲ-3
  6
CONTINUOUS
 10
5.272323
 20
3.575004
  0
VERTEX
  8
ڲ-3
  6
CONTINUOUS
 10
5.161819
 20
3.608963
  0
VERTEX
  8
ڲ-3
  6
CONTINUOUS
 10
5.057302
 20
3.641034
  0
VERTEX
  8
ڲ-3
  6
CONTINUOUS
 10
4.962763
 20
3.669978
  0
VERTEX
  8
ڲ-3
  6
CONTINUOUS
 10
4.882191
 20
3.694555
  0
VERTEX
  8
ڲ-3
  6
CONTINUOUS
 10
4.819580
 20
3.713525
  0
VERTEX
  8
ڲ-3
  6
CONTINUOUS
 10
4.778918
 20
3.725649
  0
VERTEX
  8
ڲ-3
  6
CONTINUOUS
 10
4.764198
 20
3.729687
  0
VERTEX
  8
ڲ-3
  6
CONTINUOUS
 10
4.740001
 20
3.652828
  0
VERTEX
  8
ڲ-3
  6
CONTINUOUS
 10
4.714091
 20
3.576643
  0
VERTEX
  8
ڲ-3
  6
CONTINUOUS
 10
4.686487
 20
3.501162
  0
VERTEX
  8
ڲ-3
  6
CONTINUOUS
 10
4.657207
 20
3.426419
  0
VERTEX
  8
ڲ-3
  6
CONTINUOUS
 10
4.626270
 20
3.352445
  0
VERTEX
  8
ڲ-3
  6
CONTINUOUS
 10
4.593693
 20
3.279273
  0
VERTEX
  8
ڲ-3
  6
CONTINUOUS
 10
4.559495
 20
3.206934
  0
VERTEX
  8
ڲ-3
  6
CONTINUOUS
 10
4.523694
 20
3.135460
  0
VERTEX
  8
ڲ-3
  6
CONTINUOUS
 10
4.486309
 20
3.064884
  0
VERTEX
  8
ڲ-3
  6
CONTINUOUS
 10
4.447358
 20
2.995237
  0
VERTEX
  8
ڲ-3
  6
CONTINUOUS
 10
4.406860
 20
2.926552
  0
VERTEX
  8
ڲ-3
  6
CONTINUOUS
 10
4.364832
 20
2.858861
  0
VERTEX
  8
ڲ-3
  6
CONTINUOUS
 10
4.321293
 20
2.792195
  0
VERTEX
  8
ڲ-3
  6
CONTINUOUS
 10
4.276261
 20
2.726587
  0
VERTEX
  8
ڲ-3
  6
CONTINUOUS
 10
4.363641
 20
2.665563
  0
VERTEX
  8
ڲ-3
  6
CONTINUOUS
 10
4.448131
 20
2.606515
  0
VERTEX
  8
ڲ-3
  6
CONTINUOUS
 10
4.529636
 20
2.549523
  0
VERTEX
  8
ڲ-3
  6
CONTINUOUS
 10
4.608059
 20
2.494663
  0
VERTEX
  8
ڲ-3
  6
CONTINUOUS
 10
4.683302
 20
2.442015
  0
VERTEX
  8
ڲ-3
  6
CONTINUOUS
 10
4.755269
 20
2.391657
  0
VERTEX
  8
ڲ-3
  6
CONTINUOUS
 10
4.823863
 20
2.343666
  0
VERTEX
  8
ڲ-3
  6
CONTINUOUS
 10
4.888987
 20
2.298122
  0
VERTEX
  8
ڲ-3
  6
CONTINUOUS
 10
4.950544
 20
2.255101
  0
VERTEX
  8
ڲ-3
  6
CONTINUOUS
 10
5.008439
 20
2.214683
  0
VERTEX
  8
ڲ-3
  6
CONTINUOUS
 10
5.062573
 20
2.176946
  0
VERTEX
  8
ڲ-3
  6
CONTINUOUS
 10
5.112850
 20
2.141967
  0
VERTEX
  8
ڲ-3
  6
CONTINUOUS
 10
5.159173
 20
2.109825
  0
VERTEX
  8
ڲ-3
  6
CONTINUOUS
 10
5.201446
 20
2.080598
  0
VERTEX
  8
ڲ-3
  6
CONTINUOUS
 10
5.239571
 20
2.054364
  0
SEQEND
  8
0
  0
POLYLINE
  8
ڲ-3
  6
CONTINUOUS
 66
     1
 40
0.012565
 41
0.012565
  0
VERTEX
  8
ڲ-3
  6
CONTINUOUS
 10
4.762104
 20
3.725498
  0
VERTEX
  8
ڲ-3
  6
CONTINUOUS
 10
5.886664
 20
3.386246
  0
SEQEND
  8
0
  0
POLYLINE
  8
ڲ-3
  6
CONTINUOUS
 66
     1
 40
0.012565
 41
0.012565
  0
VERTEX
  8
ڲ-3
  6
CONTINUOUS
 10
5.888759
 20
3.386246
  0
VERTEX
  8
ڲ-3
  6
CONTINUOUS
 10
5.909587
 20
3.455344
  0
VERTEX
  8
ڲ-3
  6
CONTINUOUS
 10
5.929349
 20
3.524834
  0
VERTEX
  8
ڲ-3
  6
CONTINUOUS
 10
5.948038
 20
3.594704
  0
VERTEX
  8
ڲ-3
  6
CONTINUOUS
 10
5.965647
 20
3.664941
  0
VERTEX
  8
ڲ-3
  6
CONTINUOUS
 10
5.982171
 20
3.735533
  0
VERTEX
  8
ڲ-3
  6
CONTINUOUS
 10
5.997604
 20
3.806467
  0
VERTEX
  8
ڲ-3
  6
CONTINUOUS
 10
6.011940
 20
3.877730
  0
VERTEX
  8
ڲ-3
  6
CONTINUOUS
 10
6.025172
 20
3.949310
  0
VERTEX
  8
ڲ-3
  6
CONTINUOUS
 10
6.037295
 20
4.021195
  0
VERTEX
  8
ڲ-3
  6
CONTINUOUS
 10
6.048302
 20
4.093371
  0
VERTEX
  8
ڲ-3
  6
CONTINUOUS
 10
6.058188
 20
4.165827
  0
VERTEX
  8
ڲ-3
  6
CONTINUOUS
 10
6.066946
 20
4.238549
  0
VERTEX
  8
ڲ-3
  6
CONTINUOUS
 10
6.074570
 20
4.311526
  0
VERTEX
  8
ڲ-3
  6
CONTINUOUS
 10
6.081055
 20
4.384743
  0
VERTEX
  8
ڲ-3
  6
CONTINUOUS
 10
6.086394
 20
4.458190
  0
VERTEX
  8
ڲ-3
  6
CONTINUOUS
 10
6.090582
 20
4.531853
  0
VERTEX
  8
ڲ-3
  6
CONTINUOUS
 10
6.093611
 20
4.605721
  0
VERTEX
  8
ڲ-3
  6
CONTINUOUS
 10
6.095477
 20
4.679779
  0
VERTEX
  8
ڲ-3
  6
CONTINUOUS
 10
6.096172
 20
4.754016
  0
VERTEX
  8
ڲ-3
  6
CONTINUOUS
 10
6.095692
 20
4.828419
  0
VERTEX
  8
ڲ-3
  6
CONTINUOUS
 10
6.094030
 20
4.902976
  0
VERTEX
  8
ڲ-3
  6
CONTINUOUS
 10
6.091179
 20
4.977674
  0
VERTEX
  8
ڲ-3
  6
CONTINUOUS
 10
6.087135
 20
5.052500
  0
VERTEX
  8
ڲ-3
  6
CONTINUOUS
 10
6.081890
 20
5.127442
  0
VERTEX
  8
ڲ-3
  6
CONTINUOUS
 10
6.075439
 20
5.202487
  0
VERTEX
  8
ڲ-3
  6
CONTINUOUS
 10
6.067775
 20
5.277623
  0
VERTEX
  8
ڲ-3
  6
CONTINUOUS
 10
6.058894
 20
5.352838
  0
VERTEX
  8
ڲ-3
  6
CONTINUOUS
 10
6.048788
 20
5.428117
  0
VERTEX
  8
ڲ-3
  6
CONTINUOUS
 10
6.037451
 20
5.503450
  0
VERTEX
  8
ڲ-3
  6
CONTINUOUS
 10
6.024879
 20
5.578824
  0
VERTEX
  8
ڲ-3
  6
CONTINUOUS
 10
6.012401
 20
5.646729
  0
VERTEX
  8
ڲ-3
  6
CONTINUOUS
 10
5.998990
 20
5.714228
  0
VERTEX
  8
ڲ-3
  6
CONTINUOUS
 10
5.984654
 20
5.781316
  0
VERTEX
  8
ڲ-3
  6
CONTINUOUS
 10
5.969401
 20
5.847987
  0
VERTEX
  8
ڲ-3
  6
CONTINUOUS
 10
5.953238
 20
5.914236
  0
VERTEX
  8
ڲ-3
  6
CONTINUOUS
 10
5.936174
 20
5.980056
  0
VERTEX
  8
ڲ-3
  6
CONTINUOUS
 10
5.918216
 20
6.045444
  0
VERTEX
  8
ڲ-3
  6
CONTINUOUS
 10
5.899373
 20
6.110393
  0
VERTEX
  8
ڲ-3
  6
CONTINUOUS
 10
5.879651
 20
6.174897
  0
VERTEX
  8
ڲ-3
  6
CONTINUOUS
 10
5.859059
 20
6.238952
  0
VERTEX
  8
ڲ-3
  6
CONTINUOUS
 10
5.837605
 20
6.302552
  0
VERTEX
  8
ڲ-3
  6
CONTINUOUS
 10
5.815296
 20
6.365691
  0
VERTEX
  8
ڲ-3
  6
CONTINUOUS
 10
5.792141
 20
6.428365
  0
VERTEX
  8
ڲ-3
  6
CONTINUOUS
 10
5.768147
 20
6.490567
  0
VERTEX
  8
ڲ-3
  6
CONTINUOUS
 10
5.743322
 20
6.552292
  0
VERTEX
  8
ڲ-3
  6
CONTINUOUS
 10
5.717673
 20
6.613534
  0
VERTEX
  8
ڲ-3
  6
CONTINUOUS
 10
5.691210
 20
6.674289
  0
VERTEX
  8
ڲ-3
  6
CONTINUOUS
 10
5.663939
 20
6.734550
  0
VERTEX
  8
ڲ-3
  6
CONTINUOUS
 10
5.635868
 20
6.794313
  0
VERTEX
  8
ڲ-3
  6
CONTINUOUS
 10
5.607005
 20
6.853571
  0
VERTEX
  8
ڲ-3
  6
CONTINUOUS
 10
5.577359
 20
6.912320
  0
VERTEX
  8
ڲ-3
  6
CONTINUOUS
 10
5.546936
 20
6.970553
  0
VERTEX
  8
ڲ-3
  6
CONTINUOUS
 10
5.515745
 20
7.028266
  0
VERTEX
  8
ڲ-3
  6
CONTINUOUS
 10
5.483793
 20
7.085453
  0
VERTEX
  8
ڲ-3
  6
CONTINUOUS
 10
5.451089
 20
7.142108
  0
VERTEX
  8
ڲ-3
  6
CONTINUOUS
 10
5.417640
 20
7.198226
  0
VERTEX
  8
ڲ-3
  6
CONTINUOUS
 10
5.383455
 20
7.253802
  0
VERTEX
  8
ڲ-3
  6
CONTINUOUS
 10
5.348540
 20
7.308830
  0
VERTEX
  8
ڲ-3
  6
CONTINUOUS
 10
5.312903
 20
7.363305
  0
VERTEX
  8
ڲ-3
  6
CONTINUOUS
 10
5.276554
 20
7.417220
  0
VERTEX
  8
ڲ-3
  6
CONTINUOUS
 10
5.239498
 20
7.470572
  0
VERTEX
  8
ڲ-3
  6
CONTINUOUS
 10
5.201745
 20
7.523353
  0
VERTEX
  8
ڲ-3
  6
CONTINUOUS
 10
5.163302
 20
7.575560
  0
VERTEX
  8
ڲ-3
  6
CONTINUOUS
 10
5.124177
 20
7.627186
  0
VERTEX
  8
ڲ-3
  6
CONTINUOUS
 10
5.084378
 20
7.678225
  0
VERTEX
  8
ڲ-3
  6
CONTINUOUS
 10
5.043912
 20
7.728673
  0
VERTEX
  8
ڲ-3
  6
CONTINUOUS
 10
5.002788
 20
7.778524
  0
VERTEX
  8
ڲ-3
  6
CONTINUOUS
 10
4.961013
 20
7.827773
  0
VERTEX
  8
ڲ-3
  6
CONTINUOUS
 10
4.918595
 20
7.876413
  0
VERTEX
  8
ڲ-3
  6
CONTINUOUS
 10
4.875542
 20
7.924440
  0
VERTEX
  8
ڲ-3
  6
CONTINUOUS
 10
4.831862
 20
7.971848
  0
VERTEX
  8
ڲ-3
  6
CONTINUOUS
 10
4.787562
 20
8.018632
  0
VERTEX
  8
ڲ-3
  6
CONTINUOUS
 10
4.742651
 20
8.064786
  0
VERTEX
  8
ڲ-3
  6
CONTINUOUS
 10
4.697136
 20
8.110305
  0
VERTEX
  8
ڲ-3
  6
CONTINUOUS
 10
4.651025
 20
8.155183
  0
VERTEX
  8
ڲ-3
  6
CONTINUOUS
 10
4.604326
 20
8.199415
  0
VERTEX
  8
ڲ-3
  6
CONTINUOUS
 10
4.557047
 20
8.242995
  0
VERTEX
  8
ڲ-3
  6
CONTINUOUS
 10
4.509196
 20
8.285918
  0
VERTEX
  8
ڲ-3
  6
CONTINUOUS
 10
4.460780
 20
8.328178
  0
VERTEX
  8
ڲ-3
  6
CONTINUOUS
 10
4.411807
 20
8.369771
  0
VERTEX
  8
ڲ-3
  6
CONTINUOUS
 10
4.362286
 20
8.410690
  0
VERTEX
  8
ڲ-3
  6
CONTINUOUS
 10
4.312224
 20
8.450929
  0
VERTEX
  8
ڲ-3
  6
CONTINUOUS
 10
4.261628
 20
8.490485
  0
VERTEX
  8
ڲ-3
  6
CONTINUOUS
 10
4.210507
 20
8.529351
  0
VERTEX
  8
ڲ-3
  6
CONTINUOUS
 10
4.158868
 20
8.567521
  0
VERTEX
  8
ڲ-3
  6
CONTINUOUS
 10
4.106720
 20
8.604991
  0
VERTEX
  8
ڲ-3
  6
CONTINUOUS
 10
4.054070
 20
8.641754
  0
VERTEX
  8
ڲ-3
  6
CONTINUOUS
 10
4.000926
 20
8.677805
  0
VERTEX
  8
ڲ-3
  6
CONTINUOUS
 10
3.947296
 20
8.713140
  0
VERTEX
  8
ڲ-3
  6
CONTINUOUS
 10
3.893187
 20
8.747752
  0
VERTEX
  8
ڲ-3
  6
CONTINUOUS
 10
3.838608
 20
8.781635
  0
VERTEX
  8
ڲ-3
  6
CONTINUOUS
 10
3.783567
 20
8.814785
  0
VERTEX
  8
ڲ-3
  6
CONTINUOUS
 10
3.728070
 20
8.847196
  0
VERTEX
  8
ڲ-3
  6
CONTINUOUS
 10
3.672127
 20
8.878863
  0
VERTEX
  8
ڲ-3
  6
CONTINUOUS
 10
3.615745
 20
8.909780
  0
VERTEX
  8
ڲ-3
  6
CONTINUOUS
 10
3.558931
 20
8.939941
  0
VERTEX
  8
ڲ-3
  6
CONTINUOUS
 10
3.501693
 20
8.969341
  0
VERTEX
  8
ڲ-3
  6
CONTINUOUS
 10
3.444040
 20
8.997976
  0
VERTEX
  8
ڲ-3
  6
CONTINUOUS
 10
3.385980
 20
9.025838
  0
VERTEX
  8
ڲ-3
  6
CONTINUOUS
 10
3.327519
 20
9.052923
  0
VERTEX
  8
ڲ-3
  6
CONTINUOUS
 10
3.268666
 20
9.079225
  0
VERTEX
  8
ڲ-3
  6
CONTINUOUS
 10
3.209429
 20
9.104740
  0
VERTEX
  8
ڲ-3
  6
CONTINUOUS
 10
3.149816
 20
9.129460
  0
VERTEX
  8
ڲ-3
  6
CONTINUOUS
 10
3.089834
 20
9.153382
  0
VERTEX
  8
ڲ-3
  6
CONTINUOUS
 10
3.029491
 20
9.176499
  0
VERTEX
  8
ڲ-3
  6
CONTINUOUS
 10
2.968795
 20
9.198806
  0
VERTEX
  8
ڲ-3
  6
CONTINUOUS
 10
2.907755
 20
9.220298
  0
VERTEX
  8
ڲ-3
  6
CONTINUOUS
 10
2.846377
 20
9.240968
  0
VERTEX
  8
ڲ-3
  6
CONTINUOUS
 10
2.784669
 20
9.260813
  0
VERTEX
  8
ڲ-3
  6
CONTINUOUS
 10
2.722640
 20
9.279825
  0
VERTEX
  8
ڲ-3
  6
CONTINUOUS
 10
2.660297
 20
9.298000
  0
VERTEX
  8
ڲ-3
  6
CONTINUOUS
 10
2.597649
 20
9.315333
  0
VERTEX
  8
ڲ-3
  6
CONTINUOUS
 10
2.534702
 20
9.331817
  0
VERTEX
  8
ڲ-3
  6
CONTINUOUS
 10
2.471465
 20
9.347447
  0
VERTEX
  8
ڲ-3
  6
CONTINUOUS
 10
2.407945
 20
9.362219
  0
VERTEX
  8
ڲ-3
  6
CONTINUOUS
 10
2.344152
 20
9.376126
  0
VERTEX
  8
ڲ-3
  6
CONTINUOUS
 10
2.280091
 20
9.389162
  0
VERTEX
  8
ڲ-3
  6
CONTINUOUS
 10
2.215771
 20
9.401323
  0
VERTEX
  8
ڲ-3
  6
CONTINUOUS
 10
2.151201
 20
9.412604
  0
VERTEX
  8
ڲ-3
  6
CONTINUOUS
 10
2.086387
 20
9.422998
  0
VERTEX
  8
ڲ-3
  6
CONTINUOUS
 10
2.021338
 20
9.432500
  0
VERTEX
  8
ڲ-3
  6
CONTINUOUS
 10
1.956061
 20
9.441104
  0
VERTEX
  8
ڲ-3
  6
CONTINUOUS
 10
1.890565
 20
9.448806
  0
VERTEX
  8
ڲ-3
  6
CONTINUOUS
 10
1.824857
 20
9.455599
  0
VERTEX
  8
ڲ-3
  6
CONTINUOUS
 10
1.758945
 20
9.461479
  0
VERTEX
  8
ڲ-3
  6
CONTINUOUS
 10
1.692837
 20
9.466440
  0
VERTEX
  8
ڲ-3
  6
CONTINUOUS
 10
1.626540
 20
9.470476
  0
VERTEX
  8
ڲ-3
  6
CONTINUOUS
 10
1.560063
 20
9.473581
  0
VERTEX
  8
ڲ-3
  6
CONTINUOUS
 10
1.493413
 20
9.475752
  0
VERTEX
  8
ڲ-3
  6
CONTINUOUS
 10
1.426598
 20
9.476981
  0
VERTEX
  8
ڲ-3
  6
CONTINUOUS
 10
1.359626
 20
9.477263
  0
VERTEX
  8
ڲ-3
  6
CONTINUOUS
 10
1.292506
 20
9.476594
  0
VERTEX
  8
ڲ-3
  6
CONTINUOUS
 10
1.225243
 20
9.474967
  0
VERTEX
  8
ڲ-3
  6
CONTINUOUS
 10
1.157848
 20
9.472378
  0
VERTEX
  8
ڲ-3
  6
CONTINUOUS
 10
1.090327
 20
9.468820
  0
VERTEX
  8
ڲ-3
  6
CONTINUOUS
 10
1.022688
 20
9.464288
  0
VERTEX
  8
ڲ-3
  6
CONTINUOUS
 10
0.954939
 20
9.458777
  0
VERTEX
  8
ڲ-3
  6
CONTINUOUS
 10
0.887087
 20
9.452282
  0
VERTEX
  8
ڲ-3
  6
CONTINUOUS
 10
0.819142
 20
9.444796
  0
VERTEX
  8
ڲ-3
  6
CONTINUOUS
 10
0.751110
 20
9.436314
  0
VERTEX
  8
ڲ-3
  6
CONTINUOUS
 10
0.683000
 20
9.426832
  0
VERTEX
  8
ڲ-3
  6
CONTINUOUS
 10
0.614818
 20
9.416343
  0
VERTEX
  8
ڲ-3
  6
CONTINUOUS
 10
0.546574
 20
9.404842
  0
VERTEX
  8
ڲ-3
  6
CONTINUOUS
 10
0.546574
 20
9.404842
  0
VERTEX
  8
ڲ-3
  6
CONTINUOUS
 10
0.542929
 20
9.404299
  0
VERTEX
  8
ڲ-3
  6
CONTINUOUS
 10
0.539749
 20
9.403290
  0
VERTEX
  8
ڲ-3
  6
CONTINUOUS
 10
0.536103
 20
9.402748
  0
VERTEX
  8
ڲ-3
  6
CONTINUOUS
 10
0.542548
 20
9.366676
  0
VERTEX
  8
ڲ-3
  6
CONTINUOUS
 10
0.550136
 20
9.323925
  0
VERTEX
  8
ڲ-3
  6
CONTINUOUS
 10
0.558837
 20
9.274686
  0
VERTEX
  8
ڲ-3
  6
CONTINUOUS
 10
0.568622
 20
9.219147
  0
VERTEX
  8
ڲ-3
  6
CONTINUOUS
 10
0.579460
 20
9.157499
  0
VERTEX
  8
ڲ-3
  6
CONTINUOUS
 10
0.591322
 20
9.089931
  0
VERTEX
  8
ڲ-3
  6
CONTINUOUS
 10
0.604178
 20
9.016634
  0
VERTEX
  8
ڲ-3
  6
CONTINUOUS
 10
0.617998
 20
8.937797
  0
VERTEX
  8
ڲ-3
  6
CONTINUOUS
 10
0.632753
 20
8.853610
  0
VERTEX
  8
ڲ-3
  6
CONTINUOUS
 10
0.648412
 20
8.764264
  0
VERTEX
  8
ڲ-3
  6
CONTINUOUS
 10
0.664946
 20
8.669947
  0
VERTEX
  8
ڲ-3
  6
CONTINUOUS
 10
0.682325
 20
8.570849
  0
VERTEX
  8
ڲ-3
  6
CONTINUOUS
 10
0.700520
 20
8.467162
  0
VERTEX
  8
ڲ-3
  6
CONTINUOUS
 10
0.719500
 20
8.359074
  0
VERTEX
  8
ڲ-3
  6
CONTINUOUS
 10
0.739236
 20
8.246775
  0
VERTEX
  8
ڲ-3
  6
CONTINUOUS
 10
0.742881
 20
8.246775
  0
VERTEX
  8
ڲ-3
  6
CONTINUOUS
 10
0.746061
 20
8.246775
  0
VERTEX
  8
ڲ-3
  6
CONTINUOUS
 10
0.749707
 20
8.246775
  0
VERTEX
  8
ڲ-3
  6
CONTINUOUS
 10
0.817813
 20
8.258148
  0
VERTEX
  8
ڲ-3
  6
CONTINUOUS
 10
0.885831
 20
8.268177
  0
VERTEX
  8
ڲ-3
  6
CONTINUOUS
 10
0.953747
 20
8.276873
  0
VERTEX
  8
ڲ-3
  6
CONTINUOUS
 10
1.021546
 20
8.284245
  0
VERTEX
  8
ڲ-3
  6
CONTINUOUS
 10
1.089216
 20
8.290302
  0
VERTEX
  8
ڲ-3
  6
CONTINUOUS
 10
1.156742
 20
8.295055
  0
VERTEX
  8
ڲ-3
  6
CONTINUOUS
 10
1.224110
 20
8.298513
  0
VERTEX
  8
ڲ-3
  6
CONTINUOUS
 10
1.291307
 20
8.300687
  0
VERTEX
  8
ڲ-3
  6
CONTINUOUS
 10
1.358319
 20
8.301584
  0
VERTEX
  8
ڲ-3
  6
CONTINUOUS
 10
1.425132
 20
8.301216
  0
VERTEX
  8
ڲ-3
  6
CONTINUOUS
 10
1.491732
 20
8.299592
  0
VERTEX
  8
ڲ-3
  6
CONTINUOUS
 10
1.558106
 20
8.296722
  0
VERTEX
  8
ڲ-3
  6
CONTINUOUS
 10
1.624239
 20
8.292615
  0
VERTEX
  8
ڲ-3
  6
CONTINUOUS
 10
1.690119
 20
8.287281
  0
VERTEX
  8
ڲ-3
  6
CONTINUOUS
 10
1.755730
 20
8.280729
  0
VERTEX
  8
ڲ-3
  6
CONTINUOUS
 10
1.821060
 20
8.272971
  0
VERTEX
  8
ڲ-3
  6
CONTINUOUS
 10
1.886095
 20
8.264014
  0
VERTEX
  8
ڲ-3
  6
CONTINUOUS
 10
1.950820
 20
8.253869
  0
VERTEX
  8
ڲ-3
  6
CONTINUOUS
 10
2.015223
 20
8.242546
  0
VERTEX
  8
ڲ-3
  6
CONTINUOUS
 10
2.079288
 20
8.230054
  0
VERTEX
  8
ڲ-3
  6
CONTINUOUS
 10
2.143003
 20
8.216403
  0
VERTEX
  8
ڲ-3
  6
CONTINUOUS
 10
2.206354
 20
8.201603
  0
VERTEX
  8
ڲ-3
  6
CONTINUOUS
 10
2.269326
 20
8.185663
  0
VERTEX
  8
ڲ-3
  6
CONTINUOUS
 10
2.331907
 20
8.168593
  0
VERTEX
  8
ڲ-3
  6
CONTINUOUS
 10
2.394082
 20
8.150403
  0
VERTEX
  8
ڲ-3
  6
CONTINUOUS
 10
2.455837
 20
8.131102
  0
VERTEX
  8
ڲ-3
  6
CONTINUOUS
 10
2.517159
 20
8.110700
  0
VERTEX
  8
ڲ-3
  6
CONTINUOUS
 10
2.578034
 20
8.089207
  0
VERTEX
  8
ڲ-3
  6
CONTINUOUS
 10
2.638448
 20
8.066633
  0
VERTEX
  8
ڲ-3
  6
CONTINUOUS
 10
2.698387
 20
8.042987
  0
VERTEX
  8
ڲ-3
  6
CONTINUOUS
 10
2.757838
 20
8.018279
  0
VERTEX
  8
ڲ-3
  6
CONTINUOUS
 10
2.816786
 20
7.992518
  0
VERTEX
  8
ڲ-3
  6
CONTINUOUS
 10
2.875219
 20
7.965715
  0
VERTEX
  8
ڲ-3
  6
CONTINUOUS
 10
2.933121
 20
7.937879
  0
VERTEX
  8
ڲ-3
  6
CONTINUOUS
 10
2.990480
 20
7.909020
  0
VERTEX
  8
ڲ-3
  6
CONTINUOUS
 10
3.047282
 20
7.879147
  0
VERTEX
  8
ڲ-3
  6
CONTINUOUS
 10
3.103512
 20
7.848270
  0
VERTEX
  8
ڲ-3
  6
CONTINUOUS
 10
3.159157
 20
7.816399
  0
VERTEX
  8
ڲ-3
  6
CONTINUOUS
 10
3.214204
 20
7.783543
  0
VERTEX
  8
ڲ-3
  6
CONTINUOUS
 10
3.268638
 20
7.749713
  0
VERTEX
  8
ڲ-3
  6
CONTINUOUS
 10
3.322445
 20
7.714917
  0
VERTEX
  8
ڲ-3
  6
CONTINUOUS
 10
3.375612
 20
7.679166
  0
VERTEX
  8
ڲ-3
  6
CONTINUOUS
 10
3.428126
 20
7.642470
  0
VERTEX
  8
ڲ-3
  6
CONTINUOUS
 10
3.479971
 20
7.604837
  0
VERTEX
  8
ڲ-3
  6
CONTINUOUS
 10
3.531136
 20
7.566278
  0
VERTEX
  8
ڲ-3
  6
CONTINUOUS
 10
3.581604
 20
7.526803
  0
VERTEX
  8
ڲ-3
  6
CONTINUOUS
 10
3.631364
 20
7.486421
  0
VERTEX
  8
ڲ-3
  6
CONTINUOUS
 10
3.680401
 20
7.445141
  0
VERTEX
  8
ڲ-3
  6
CONTINUOUS
 10
3.728701
 20
7.402974
  0
VERTEX
  8
ڲ-3
  6
CONTINUOUS
 10
3.776250
 20
7.359929
  0
VERTEX
  8
ڲ-3
  6
CONTINUOUS
 10
3.823036
 20
7.316016
  0
VERTEX
  8
ڲ-3
  6
CONTINUOUS
 10
3.869043
 20
7.271245
  0
VERTEX
  8
ڲ-3
  6
CONTINUOUS
 10
3.914258
 20
7.225625
  0
VERTEX
  8
ڲ-3
  6
CONTINUOUS
 10
3.958668
 20
7.179165
  0
VERTEX
  8
ڲ-3
  6
CONTINUOUS
 10
4.002258
 20
7.131877
  0
VERTEX
  8
ڲ-3
  6
CONTINUOUS
 10
4.045015
 20
7.083769
  0
VERTEX
  8
ڲ-3
  6
CONTINUOUS
 10
4.086925
 20
7.034851
  0
VERTEX
  8
ڲ-3
  6
CONTINUOUS
 10
4.127975
 20
6.985133
  0
VERTEX
  8
ڲ-3
  6
CONTINUOUS
 10
4.168149
 20
6.934624
  0
VERTEX
  8
ڲ-3
  6
CONTINUOUS
 10
4.207435
 20
6.883334
  0
VERTEX
  8
ڲ-3
  6
CONTINUOUS
 10
4.245819
 20
6.831274
  0
VERTEX
  8
ڲ-3
  6
CONTINUOUS
 10
4.283288
 20
6.778451
  0
VERTEX
  8
ڲ-3
  6
CONTINUOUS
 10
4.319826
 20
6.724877
  0
VERTEX
  8
ڲ-3
  6
CONTINUOUS
 10
4.355421
 20
6.670562
  0
VERTEX
  8
ڲ-3
  6
CONTINUOUS
 10
4.390058
 20
6.615513
  0
VERTEX
  8
ڲ-3
  6
CONTINUOUS
 10
4.423724
 20
6.559742
  0
VERTEX
  8
ڲ-3
  6
CONTINUOUS
 10
4.456406
 20
6.503258
  0
VERTEX
  8
ڲ-3
  6
CONTINUOUS
 10
4.488088
 20
6.446071
  0
VERTEX
  8
ڲ-3
  6
CONTINUOUS
 10
4.518759
 20
6.388191
  0
VERTEX
  8
ڲ-3
  6
CONTINUOUS
 10
4.548403
 20
6.329626
  0
VERTEX
  8
ڲ-3
  6
CONTINUOUS
 10
4.577006
 20
6.270388
  0
VERTEX
  8
ڲ-3
  6
CONTINUOUS
 10
4.604556
 20
6.210484
  0
VERTEX
  8
ڲ-3
  6
CONTINUOUS
 10
4.631039
 20
6.149927
  0
VERTEX
  8
ڲ-3
  6
CONTINUOUS
 10
4.656439
 20
6.088724
  0
VERTEX
  8
ڲ-3
  6
CONTINUOUS
 10
4.680745
 20
6.026885
  0
VERTEX
  8
ڲ-3
  6
CONTINUOUS
 10
4.703942
 20
5.964421
  0
VERTEX
  8
ڲ-3
  6
CONTINUOUS
 10
4.726015
 20
5.901341
  0
VERTEX
  8
ڲ-3
  6
CONTINUOUS
 10
4.746953
 20
5.837655
  0
VERTEX
  8
ڲ-3
  6
CONTINUOUS
 10
4.766739
 20
5.773372
  0
VERTEX
  8
ڲ-3
  6
CONTINUOUS
 10
4.785362
 20
5.708503
  0
VERTEX
  8
ڲ-3
  6
CONTINUOUS
 10
4.802807
 20
5.643056
  0
VERTEX
  8
ڲ-3
  6
CONTINUOUS
 10
4.819059
 20
5.577042
  0
VERTEX
  8
ڲ-3
  6
CONTINUOUS
 10
4.834107
 20
5.510470
  0
VERTEX
  8
ڲ-3
  6
CONTINUOUS
 10
4.847935
 20
5.443350
  0
VERTEX
  8
ڲ-3
  6
CONTINUOUS
 10
4.860529
 20
5.375691
  0
VERTEX
  8
ڲ-3
  6
CONTINUOUS
 10
4.860529
 20
5.375691
  0
VERTEX
  8
ڲ-3
  6
CONTINUOUS
 10
4.873109
 20
5.298308
  0
VERTEX
  8
ڲ-3
  6
CONTINUOUS
 10
4.884009
 20
5.220953
  0
VERTEX
  8
ڲ-3
  6
CONTINUOUS
 10
4.893238
 20
5.143658
  0
VERTEX
  8
ڲ-3
  6
CONTINUOUS
 10
4.900804
 20
5.066452
  0
VERTEX
  8
ڲ-3
  6
CONTINUOUS
 10
4.906717
 20
4.989363
  0
VERTEX
  8
ڲ-3
  6
CONTINUOUS
 10
4.910983
 20
4.912422
  0
VERTEX
  8
ڲ-3
  6
CONTINUOUS
 10
4.913611
 20
4.835658
  0
VERTEX
  8
ڲ-3
  6
CONTINUOUS
 10
4.914609
 20
4.759101
  0
VERTEX
  8
ڲ-3
  6
CONTINUOUS
 10
4.913986
 20
4.682779
  0
VERTEX
  8
ڲ-3
  6
CONTINUOUS
 10
4.911750
 20
4.606723
  0
VERTEX
  8
ڲ-3
  6
CONTINUOUS
 10
4.907910
 20
4.530962
  0
VERTEX
  8
ڲ-3
  6
CONTINUOUS
 10
4.902472
 20
4.455526
  0
VERTEX
  8
ڲ-3
  6
CONTINUOUS
 10
4.895447
 20
4.380443
  0
VERTEX
  8
ڲ-3
  6
CONTINUOUS
 10
4.886841
 20
4.305744
  0
VERTEX
  8
ڲ-3
  6
CONTINUOUS
 10
4.876663
 20
4.231458
  0
VERTEX
  8
ڲ-3
  6
CONTINUOUS
 10
4.864922
 20
4.157615
  0
VERTEX
  8
ڲ-3
  6
CONTINUOUS
 10
4.851626
 20
4.084243
  0
VERTEX
  8
ڲ-3
  6
CONTINUOUS
 10
4.836783
 20
4.011373
  0
VERTEX
  8
ڲ-3
  6
CONTINUOUS
 10
4.820400
 20
3.939034
  0
VERTEX
  8
ڲ-3
  6
CONTINUOUS
 10
4.802488
 20
3.867256
  0
VERTEX
  8
ڲ-3
  6
CONTINUOUS
 10
4.783053
 20
3.796067
  0
VERTEX
  8
ڲ-3
  6
CONTINUOUS
 10
4.762104
 20
3.725498
  0
VERTEX
  8
ڲ-3
  6
CONTINUOUS
 10
4.776823
 20
3.720785
  0
VERTEX
  8
ڲ-3
  6
CONTINUOUS
 10
4.817480
 20
3.708287
  0
VERTEX
  8
ڲ-3
  6
CONTINUOUS
 10
4.880080
 20
3.689211
  0
VERTEX
  8
ڲ-3
  6
CONTINUOUS
 10
4.960629
 20
3.664762
  0
VERTEX
  8
ڲ-3
  6
CONTINUOUS
 10
5.055131
 20
3.636148
  0
VERTEX
  8
ڲ-3
  6
CONTINUOUS
 10
5.159591
 20
3.604574
  0
VERTEX
  8
ڲ-3
  6
CONTINUOUS
 10
5.270016
 20
3.571246
  0
VERTEX
  8
ڲ-3
  6
CONTINUOUS
 10
5.382410
 20
3.537371
  0
VERTEX
  8
ڲ-3
  6
CONTINUOUS
 10
5.492779
 20
3.504155
  0
VERTEX
  8
ڲ-3
  6
CONTINUOUS
 10
5.597128
 20
3.472804
  0
VERTEX
  8
ڲ-3
  6
CONTINUOUS
 10
5.691463
 20
3.444524
  0
VERTEX
  8
ڲ-3
  6
CONTINUOUS
 10
5.771788
 20
3.420523
  0
VERTEX
  8
ڲ-3
  6
CONTINUOUS
 10
5.834108
 20
3.402005
  0
VERTEX
  8
ڲ-3
  6
CONTINUOUS
 10
5.874430
 20
3.390177
  0
VERTEX
  8
ڲ-3
  6
CONTINUOUS
 10
5.888759
 20
3.386246
  0
SEQEND
  8
0
  0
POLYLINE
  8
ڲ-3
  6
DOT
 66
     1
 40
0.012565
 41
0.012565
  0
VERTEX
  8
ڲ-3
  6
DOT
 10
4.760010
 20
2.393617
  0
VERTEX
  8
ڲ-3
  6
DOT
 10
4.803810
 20
2.456831
  0
VERTEX
  8
ڲ-3
  6
DOT
 10
4.846502
 20
2.520814
  0
VERTEX
  8
ڲ-3
  6
DOT
 10
4.888067
 20
2.585555
  0
VERTEX
  8
ڲ-3
  6
DOT
 10
4.928483
 20
2.651040
  0
VERTEX
  8
ڲ-3
  6
DOT
 10
4.967731
 20
2.717256
  0
VERTEX
  8
ڲ-3
  6
DOT
 10
5.005789
 20
2.784191
  0
VERTEX
  8
ڲ-3
  6
DOT
 10
5.042638
 20
2.851832
  0
VERTEX
  8
ڲ-3
  6
DOT
 10
5.078257
 20
2.920165
  0
VERTEX
  8
ڲ-3
  6
DOT
 10
5.112624
 20
2.989180
  0
VERTEX
  8
ڲ-3
  6
DOT
 10
5.145721
 20
3.058861
  0
VERTEX
  8
ڲ-3
  6
DOT
 10
5.177527
 20
3.129198
  0
VERTEX
  8
ڲ-3
  6
DOT
 10
5.208020
 20
3.200176
  0
VERTEX
  8
ڲ-3
  6
DOT
 10
5.237181
 20
3.271783
  0
VERTEX
  8
ڲ-3
  6
DOT
 10
5.264989
 20
3.344007
  0
VERTEX
  8
ڲ-3
  6
DOT
 10
5.291423
 20
3.416834
  0
VERTEX
  8
ڲ-3
  6
DOT
 10
5.316464
 20
3.490253
  0
VERTEX
  8
ڲ-3
  6
DOT
 10
5.340090
 20
3.564249
  0
SEQEND
  8
0
  0
POLYLINE
  8
ڲ-3
  6
DOT
 66
     1
 40
0.012565
 41
0.012565
  0
VERTEX
  8
ڲ-3
  6
DOT
 10
5.340090
 20
3.564249
  0
VERTEX
  8
ڲ-3
  6
DOT
 10
5.361446
 20
3.634078
  0
VERTEX
  8
ڲ-3
  6
DOT
 10
5.381530
 20
3.704374
  0
VERTEX
  8
ڲ-3
  6
DOT
 10
5.400336
 20
3.775120
  0
VERTEX
  8
ڲ-3
  6
DOT
 10
5.417857
 20
3.846301
  0
VERTEX
  8
ڲ-3
  6
DOT
 10
5.434085
 20
3.917898
  0
VERTEX
  8
ڲ-3
  6
DOT
 10
5.449014
 20
3.989897
  0
VERTEX
  8
ڲ-3
  6
DOT
 10
5.462636
 20
4.062281
  0
VERTEX
  8
ڲ-3
  6
DOT
 10
5.474944
 20
4.135033
  0
VERTEX
  8
ڲ-3
  6
DOT
 10
5.485930
 20
4.208136
  0
VERTEX
  8
ڲ-3
  6
DOT
 10
5.495589
 20
4.281575
  0
VERTEX
  8
ڲ-3
  6
DOT
 10
5.503912
 20
4.355332
  0
VERTEX
  8
ڲ-3
  6
DOT
 10
5.510892
 20
4.429392
  0
VERTEX
  8
ڲ-3
  6
DOT
 10
5.516523
 20
4.503738
  0
VERTEX
  8
ڲ-3
  6
DOT
 10
5.520797
 20
4.578353
  0
VERTEX
  8
ڲ-3
  6
DOT
 10
5.523707
 20
4.653222
  0
VERTEX
  8
ڲ-3
  6
DOT
 10
5.525245
 20
4.728327
  0
VERTEX
  8
ڲ-3
  6
DOT
 10
5.525406
 20
4.803652
  0
VERTEX
  8
ڲ-3
  6
DOT
 10
5.524181
 20
4.879181
  0
VERTEX
  8
ڲ-3
  6
DOT
 10
5.521563
 20
4.954898
  0
VERTEX
  8
ڲ-3
  6
DOT
 10
5.517545
 20
5.030785
  0
VERTEX
  8
ڲ-3
  6
DOT
 10
5.512121
 20
5.106827
  0
VERTEX
  8
ڲ-3
  6
DOT
 10
5.505283
 20
5.183006
  0
VERTEX
  8
ڲ-3
  6
DOT
 10
5.497023
 20
5.259307
  0
VERTEX
  8
ڲ-3
  6
DOT
 10
5.487335
 20
5.335713
  0
VERTEX
  8
ڲ-3
  6
DOT
 10
5.476212
 20
5.412208
  0
VERTEX
  8
ڲ-3
  6
DOT
 10
5.463646
 20
5.488775
  0
SEQEND
  8
0
  0
POLYLINE
  8
ڲ-3
  6
DOT
 66
     1
 40
0.012565
 41
0.012565
  0
VERTEX
  8
ڲ-3
  6
DOT
 10
5.463646
 20
5.488775
  0
VERTEX
  8
ڲ-3
  6
DOT
 10
5.451052
 20
5.556700
  0
VERTEX
  8
ڲ-3
  6
DOT
 10
5.437393
 20
5.624161
  0
VERTEX
  8
ڲ-3
  6
DOT
 10
5.422680
 20
5.691149
  0
VERTEX
  8
ڲ-3
  6
DOT
 10
5.406921
 20
5.757659
  0
VERTEX
  8
ڲ-3
  6
DOT
 10
5.390128
 20
5.823682
  0
VERTEX
  8
ڲ-3
  6
DOT
 10
5.372310
 20
5.889212
  0
VERTEX
  8
ڲ-3
  6
DOT
 10
5.353478
 20
5.954241
  0
VERTEX
  8
ڲ-3
  6
DOT
 10
5.333642
 20
6.018763
  0
VERTEX
  8
ڲ-3
  6
DOT
 10
5.312813
 20
6.082771
  0
VERTEX
  8
ڲ-3
  6
DOT
 10
5.291000
 20
6.146256
  0
VERTEX
  8
ڲ-3
  6
DOT
 10
5.268214
 20
6.209213
  0
VERTEX
  8
ڲ-3
  6
DOT
 10
5.244465
 20
6.271633
  0
VERTEX
  8
ڲ-3
  6
DOT
 10
5.219764
 20
6.333511
  0
VERTEX
  8
ڲ-3
  6
DOT
 10
5.194120
 20
6.394838
  0
VERTEX
  8
ڲ-3
  6
DOT
 10
5.167543
 20
6.455608
  0
VERTEX
  8
ڲ-3
  6
DOT
 10
5.140045
 20
6.515813
  0
VERTEX
  8
ڲ-3
  6
DOT
 10
5.111635
 20
6.575447
  0
VERTEX
  8
ڲ-3
  6
DOT
 10
5.082324
 20
6.634502
  0
VERTEX
  8
ڲ-3
  6
DOT
 10
5.052121
 20
6.692971
  0
VERTEX
  8
ڲ-3
  6
DOT
 10
5.021038
 20
6.750847
  0
VERTEX
  8
ڲ-3
  6
DOT
 10
4.989083
 20
6.808123
  0
VERTEX
  8
ڲ-3
  6
DOT
 10
4.956269
 20
6.864792
  0
VERTEX
  8
ڲ-3
  6
DOT
 10
4.922604
 20
6.920846
  0
VERTEX
  8
ڲ-3
  6
DOT
 10
4.888099
 20
6.976279
  0
VERTEX
  8
ڲ-3
  6
DOT
 10
4.852764
 20
7.031083
  0
VERTEX
  8
ڲ-3
  6
DOT
 10
4.816609
 20
7.085252
  0
VERTEX
  8
ڲ-3
  6
DOT
 10
4.779646
 20
7.138778
  0
VERTEX
  8
ڲ-3
  6
DOT
 10
4.741883
 20
7.191653
  0
VERTEX
  8
ڲ-3
  6
DOT
 10
4.703332
 20
7.243872
  0
VERTEX
  8
ڲ-3
  6
DOT
 10
4.664001
 20
7.295426
  0
VERTEX
  8
ڲ-3
  6
DOT
 10
4.623903
 20
7.346309
  0
VERTEX
  8
ڲ-3
  6
DOT
 10
4.583047
 20
7.396514
  0
VERTEX
  8
ڲ-3
  6
DOT
 10
4.541443
 20
7.446033
  0
VERTEX
  8
ڲ-3
  6
DOT
 10
4.499101
 20
7.494859
  0
VERTEX
  8
ڲ-3
  6
DOT
 10
4.456032
 20
7.542986
  0
VERTEX
  8
ڲ-3
  6
DOT
 10
4.412245
 20
7.590405
  0
VERTEX
  8
ڲ-3
  6
DOT
 10
4.367752
 20
7.637111
  0
VERTEX
  8
ڲ-3
  6
DOT
 10
4.322563
 20
7.683095
  0
VERTEX
  8
ڲ-3
  6
DOT
 10
4.276686
 20
7.728351
  0
VERTEX
  8
ڲ-3
  6
DOT
 10
4.230134
 20
7.772871
  0
VERTEX
  8
ڲ-3
  6
DOT
 10
4.182916
 20
7.816649
  0
VERTEX
  8
ڲ-3
  6
DOT
 10
4.135043
 20
7.859677
  0
VERTEX
  8
ڲ-3
  6
DOT
 10
4.086523
 20
7.901949
  0
VERTEX
  8
ڲ-3
  6
DOT
 10
4.037369
 20
7.943456
  0
VERTEX
  8
ڲ-3
  6
DOT
 10
3.987590
 20
7.984192
  0
VERTEX
  8
ڲ-3
  6
DOT
 10
3.937196
 20
8.024151
  0
VERTEX
  8
ڲ-3
  6
DOT
 10
3.886198
 20
8.063324
  0
VERTEX
  8
ڲ-3
  6
DOT
 10
3.834606
 20
8.101704
  0
VERTEX
  8
ڲ-3
  6
DOT
 10
3.782429
 20
8.139285
  0
VERTEX
  8
ڲ-3
  6
DOT
 10
3.729679
 20
8.176059
  0
VERTEX
  8
ڲ-3
  6
DOT
 10
3.676366
 20
8.212020
  0
VERTEX
  8
ڲ-3
  6
DOT
 10
3.622499
 20
8.247159
  0
VERTEX
  8
ڲ-3
  6
DOT
 10
3.568090
 20
8.281471
  0
VERTEX
  8
ڲ-3
  6
DOT
 10
3.513147
 20
8.314947
  0
VERTEX
  8
ڲ-3
  6
DOT
 10
3.457682
 20
8.347582
  0
VERTEX
  8
ڲ-3
  6
DOT
 10
3.401705
 20
8.379366
  0
VERTEX
  8
ڲ-3
  6
DOT
 10
3.345226
 20
8.410295
  0
VERTEX
  8
ڲ-3
  6
DOT
 10
3.288255
 20
8.440359
  0
VERTEX
  8
ڲ-3
  6
DOT
 10
3.230803
 20
8.469553
  0
VERTEX
  8
ڲ-3
  6
DOT
 10
3.172880
 20
8.497869
  0
VERTEX
  8
ڲ-3
  6
DOT
 10
3.114495
 20
8.525300
  0
VERTEX
  8
ڲ-3
  6
DOT
 10
3.055660
 20
8.551839
  0
VERTEX
  8
ڲ-3
  6
DOT
 10
2.996384
 20
8.577478
  0
VERTEX
  8
ڲ-3
  6
DOT
 10
2.936678
 20
8.602211
  0
VERTEX
  8
ڲ-3
  6
DOT
 10
2.876551
 20
8.626031
  0
VERTEX
  8
ڲ-3
  6
DOT
 10
2.816015
 20
8.648930
  0
VERTEX
  8
ڲ-3
  6
DOT
 10
2.755080
 20
8.670901
  0
VERTEX
  8
ڲ-3
  6
DOT
 10
2.693755
 20
8.691938
  0
VERTEX
  8
ڲ-3
  6
DOT
 10
2.632051
 20
8.712032
  0
VERTEX
  8
ڲ-3
  6
DOT
 10
2.569978
 20
8.731177
  0
VERTEX
  8
ڲ-3
  6
DOT
 10
2.507547
 20
8.749367
  0
VERTEX
  8
ڲ-3
  6
DOT
 10
2.444767
 20
8.766592
  0
VERTEX
  8
ڲ-3
  6
DOT
 10
2.381649
 20
8.782848
  0
VERTEX
  8
ڲ-3
  6
DOT
 10
2.318204
 20
8.798125
  0
VERTEX
  8
ڲ-3
  6
DOT
 10
2.254440
 20
8.812418
  0
VERTEX
  8
ڲ-3
  6
DOT
 10
2.190370
 20
8.825719
  0
VERTEX
  8
ڲ-3
  6
DOT
 10
2.126002
 20
8.838021
  0
VERTEX
  8
ڲ-3
  6
DOT
 10
2.061347
 20
8.849317
  0
VERTEX
  8
ڲ-3
  6
DOT
 10
1.996416
 20
8.859600
  0
VERTEX
  8
ڲ-3
  6
DOT
 10
1.931218
 20
8.868863
  0
VERTEX
  8
ڲ-3
  6
DOT
 10
1.865765
 20
8.877098
  0
VERTEX
  8
ڲ-3
  6
DOT
 10
1.800065
 20
8.884298
  0
VERTEX
  8
ڲ-3
  6
DOT
 10
1.734129
 20
8.890457
  0
VERTEX
  8
ڲ-3
  6
DOT
 10
1.667969
 20
8.895567
  0
VERTEX
  8
ڲ-3
  6
DOT
 10
1.601592
 20
8.899621
  0
VERTEX
  8
ڲ-3
  6
DOT
 10
1.535012
 20
8.902612
  0
VERTEX
  8
ڲ-3
  6
DOT
 10
1.468236
 20
8.904533
  0
VERTEX
  8
ڲ-3
  6
DOT
 10
1.401276
 20
8.905376
  0
VERTEX
  8
ڲ-3
  6
DOT
 10
1.334141
 20
8.905135
  0
VERTEX
  8
ڲ-3
  6
DOT
 10
1.266843
 20
8.903803
  0
VERTEX
  8
ڲ-3
  6
DOT
 10
1.199391
 20
8.901371
  0
VERTEX
  8
ڲ-3
  6
DOT
 10
1.131796
 20
8.897834
  0
VERTEX
  8
ڲ-3
  6
DOT
 10
1.064067
 20
8.893184
  0
VERTEX
  8
ڲ-3
  6
DOT
 10
0.996215
 20
8.887414
  0
VERTEX
  8
ڲ-3
  6
DOT
 10
0.928251
 20
8.880517
  0
VERTEX
  8
ڲ-3
  6
DOT
 10
0.860184
 20
8.872486
  0
VERTEX
  8
ڲ-3
  6
DOT
 10
0.792024
 20
8.863313
  0
VERTEX
  8
ڲ-3
  6
DOT
 10
0.723783
 20
8.852992
  0
VERTEX
  8
ڲ-3
  6
DOT
 10
0.655470
 20
8.841514
  0
SEQEND
  8
0
  0
SOLID
  8
ڲ-3
 10
4.818646
 20
3.717122
 11
4.799799
 21
3.796700
 12
4.818646
 22
3.717122
 13
4.879377
 23
3.771570
  0
POLYLINE
  8
ڲ-3
  6
CONTINUOUS
 66
     1
 40
0.012565
 41
0.012565
  0
VERTEX
  8
ڲ-3
  6
CONTINUOUS
 10
4.818646
 20
3.717122
  0
VERTEX
  8
ڲ-3
  6
CONTINUOUS
 10
4.799799
 20
3.796700
  0
VERTEX
  8
ڲ-3
  6
CONTINUOUS
 10
4.879377
 20
3.771570
  0
VERTEX
  8
ڲ-3
  6
CONTINUOUS
 10
4.818646
 20
3.717122
  0
SEQEND
  8
0
  0
SOLID
  8
ڲ-3
 10
5.838499
 20
3.407187
 11
5.819652
 21
3.486765
 12
5.838499
 22
3.407187
 13
5.899229
 23
3.461635
  0
POLYLINE
  8
ڲ-3
  6
CONTINUOUS
 66
     1
 40
0.012565
 41
0.012565
  0
VERTEX
  8
ڲ-3
  6
CONTINUOUS
 10
5.838499
 20
3.407187
  0
VERTEX
  8
ڲ-3
  6
CONTINUOUS
 10
5.819652
 20
3.486765
  0
VERTEX
  8
ڲ-3
  6
CONTINUOUS
 10
5.899229
 20
3.461635
  0
VERTEX
  8
ڲ-3
  6
CONTINUOUS
 10
5.838499
 20
3.407187
  0
SEQEND
  8
0
  0
SOLID
  8
ڲ-3
 10
0.550762
 20
9.350394
 11
0.613587
 21
9.404842
 12
0.550762
 22
9.350394
 13
0.628246
 23
9.323170
  0
POLYLINE
  8
ڲ-3
  6
CONTINUOUS
 66
     1
 40
0.012565
 41
0.012565
  0
VERTEX
  8
ڲ-3
  6
CONTINUOUS
 10
0.550762
 20
9.350394
  0
VERTEX
  8
ڲ-3
  6
CONTINUOUS
 10
0.613587
 20
9.404842
  0
VERTEX
  8
ڲ-3
  6
CONTINUOUS
 10
0.628246
 20
9.323170
  0
VERTEX
  8
ڲ-3
  6
CONTINUOUS
 10
0.550762
 20
9.350394
  0
SEQEND
  8
0
  0
SOLID
  8
ڲ-3
 10
0.739236
 20
8.301223
 11
0.802061
 21
8.353577
 12
0.739236
 22
8.301223
 13
0.816720
 23
8.273999
  0
POLYLINE
  8
ڲ-3
  6
CONTINUOUS
 66
     1
 40
0.012565
 41
0.012565
  0
VERTEX
  8
ڲ-3
  6
CONTINUOUS
 10
0.739236
 20
8.301223
  0
VERTEX
  8
ڲ-3
  6
CONTINUOUS
 10
0.802061
 20
8.353577
  0
VERTEX
  8
ڲ-3
  6
CONTINUOUS
 10
0.816720
 20
8.273999
  0
VERTEX
  8
ڲ-3
  6
CONTINUOUS
 10
0.739236
 20
8.301223
  0
SEQEND
  8
0
  0
TEXT
  8
ڲ-3
 10
5.597671
 20
3.421846
 40
0.108805
  1
For applying paste.
 50
243.254229
 41
1.000000
  7
SN0
 71
     0
 72
     5
 11
5.020864
 21
2.277360
  0
POLYLINE
  8
ڲ-3
  6
CONTINUOUS
 66
     1
 40
0.012565
 41
0.012565
  0
VERTEX
  8
ڲ-3
  6
CONTINUOUS
 10
1.474284
 20
7.884487
  0
VERTEX
  8
ڲ-3
  6
CONTINUOUS
 10
1.429558
 20
7.820307
  0
VERTEX
  8
ڲ-3
  6
CONTINUOUS
 10
1.385981
 20
7.755409
  0
VERTEX
  8
ڲ-3
  6
CONTINUOUS
 10
1.343553
 20
7.689805
  0
VERTEX
  8
ڲ-3
  6
CONTINUOUS
 10
1.302273
 20
7.623510
  0
VERTEX
  8
ڲ-3
  6
CONTINUOUS
 10
1.262142
 20
7.556534
  0
VERTEX
  8
ڲ-3
  6
CONTINUOUS
 10
1.223159
 20
7.488892
  0
VERTEX
  8
ڲ-3
  6
CONTINUOUS
 10
1.185325
 20
7.420596
  0
VERTEX
  8
ڲ-3
  6
CONTINUOUS
 10
1.148640
 20
7.351659
  0
VERTEX
  8
ڲ-3
  6
CONTINUOUS
 10
1.113103
 20
7.282093
  0
VERTEX
  8
ڲ-3
  6
CONTINUOUS
 10
1.078715
 20
7.211912
  0
VERTEX
  8
ڲ-3
  6
CONTINUOUS
 10
1.045475
 20
7.141128
  0
VERTEX
  8
ڲ-3
  6
CONTINUOUS
 10
1.013384
 20
7.069754
  0
VERTEX
  8
ڲ-3
  6
CONTINUOUS
 10
0.982442
 20
6.997804
  0
VERTEX
  8
ڲ-3
  6
CONTINUOUS
 10
0.952648
 20
6.925289
  0
VERTEX
  8
ڲ-3
  6
CONTINUOUS
 10
0.924003
 20
6.852222
  0
VERTEX
  8
ڲ-3
  6
CONTINUOUS
 10
0.896506
 20
6.778617
  0
VERTEX
  8
ڲ-3
  6
CONTINUOUS
 10
0.870158
 20
6.704487
  0
VERTEX
  8
ڲ-3
  6
CONTINUOUS
 10
0.844959
 20
6.629843
  0
VERTEX
  8
ڲ-3
  6
CONTINUOUS
 10
0.820908
 20
6.554699
  0
VERTEX
  8
ڲ-3
  6
CONTINUOUS
 10
0.820908
 20
6.554699
  0
VERTEX
  8
ڲ-3
  6
CONTINUOUS
 10
0.835628
 20
6.550271
  0
VERTEX
  8
ڲ-3
  6
CONTINUOUS
 10
0.876289
 20
6.537812
  0
VERTEX
  8
ڲ-3
  6
CONTINUOUS
 10
0.938901
 20
6.518563
  0
VERTEX
  8
ڲ-3
  6
CONTINUOUS
 10
1.019472
 20
6.493762
  0
VERTEX
  8
ڲ-3
  6
CONTINUOUS
 10
1.114012
 20
6.464651
  0
VERTEX
  8
ڲ-3
  6
CONTINUOUS
 10
1.218529
 20
6.432468
  0
VERTEX
  8
ڲ-3
  6
CONTINUOUS
 10
1.329033
 20
6.398453
  0
VERTEX
  8
ڲ-3
  6
CONTINUOUS
 10
1.441532
 20
6.363847
  0
VERTEX
  8
ڲ-3
  6
CONTINUOUS
 10
1.552036
 20
6.329888
  0
VERTEX
  8
ڲ-3
  6
CONTINUOUS
 10
1.656553
 20
6.297816
  0
VERTEX
  8
ڲ-3
  6
CONTINUOUS
 10
1.751092
 20
6.268873
  0
VERTEX
  8
ڲ-3
  6
CONTINUOUS
 10
1.831664
 20
6.244296
  0
VERTEX
  8
ڲ-3
  6
CONTINUOUS
 10
1.894275
 20
6.225325
  0
VERTEX
  8
ڲ-3
  6
CONTINUOUS
 10
1.934937
 20
6.213202
  0
VERTEX
  8
ڲ-3
  6
CONTINUOUS
 10
1.949657
 20
6.209164
  0
VERTEX
  8
ڲ-3
  6
CONTINUOUS
 10
1.973854
 20
6.286023
  0
VERTEX
  8
ڲ-3
  6
CONTINUOUS
 10
1.999764
 20
6.362208
  0
VERTEX
  8
ڲ-3
  6
CONTINUOUS
 10
2.027368
 20
6.437688
  0
VERTEX
  8
ڲ-3
  6
CONTINUOUS
 10
2.056648
 20
6.512432
  0
VERTEX
  8
ڲ-3
  6
CONTINUOUS
 10
2.087585
 20
6.586405
  0
VERTEX
  8
ڲ-3
  6
CONTINUOUS
 10
2.120162
 20
6.659578
  0
VERTEX
  8
ڲ-3
  6
CONTINUOUS
 10
2.154360
 20
6.731917
  0
VERTEX
  8
ڲ-3
  6
CONTINUOUS
 10
2.190161
 20
6.803391
  0
VERTEX
  8
ڲ-3
  6
CONTINUOUS
 10
2.227545
 20
6.873967
  0
VERTEX
  8
ڲ-3
  6
CONTINUOUS
 10
2.266496
 20
6.943613
  0
VERTEX
  8
ڲ-3
  6
CONTINUOUS
 10
2.306995
 20
7.012298
  0
VERTEX
  8
ڲ-3
  6
CONTINUOUS
 10
2.349023
 20
7.079990
  0
VERTEX
  8
ڲ-3
  6
CONTINUOUS
 10
2.392562
 20
7.146655
  0
VERTEX
  8
ڲ-3
  6
CONTINUOUS
 10
2.437594
 20
7.212263
  0
VERTEX
  8
ڲ-3
  6
CONTINUOUS
 10
2.350214
 20
7.273288
  0
VERTEX
  8
ڲ-3
  6
CONTINUOUS
 10
2.265724
 20
7.332336
  0
VERTEX
  8
ڲ-3
  6
CONTINUOUS
 10
2.184218
 20
7.389328
  0
VERTEX
  8
ڲ-3
  6
CONTINUOUS
 10
2.105796
 20
7.444188
  0
VERTEX
  8
ڲ-3
  6
CONTINUOUS
 10
2.030553
 20
7.496836
  0
VERTEX
  8
ڲ-3
  6
CONTINUOUS
 10
1.958586
 20
7.547194
  0
VERTEX
  8
ڲ-3
  6
CONTINUOUS
 10
1.889992
 20
7.595184
  0
VERTEX
  8
ڲ-3
  6
CONTINUOUS
 10
1.824868
 20
7.640729
  0
VERTEX
  8
ڲ-3
  6
CONTINUOUS
 10
1.763310
 20
7.683749
  0
VERTEX
  8
ڲ-3
  6
CONTINUOUS
 10
1.705416
 20
7.724167
  0
VERTEX
  8
ڲ-3
  6
CONTINUOUS
 10
1.651282
 20
7.761905
  0
VERTEX
  8
ڲ-3
  6
CONTINUOUS
 10
1.601005
 20
7.796884
  0
VERTEX
  8
ڲ-3
  6
CONTINUOUS
 10
1.554682
 20
7.829026
  0
VERTEX
  8
ڲ-3
  6
CONTINUOUS
 10
1.512409
 20
7.858253
  0
VERTEX
  8
ڲ-3
  6
CONTINUOUS
 10
1.474284
 20
7.884487
  0
SEQEND
  8
0
  0
POLYLINE
  8
ڲ-3
  6
CONTINUOUS
 66
     1
 40
0.012565
 41
0.012565
  0
VERTEX
  8
ڲ-3
  6
CONTINUOUS
 10
1.947562
 20
6.213352
  0
VERTEX
  8
ڲ-3
  6
CONTINUOUS
 10
0.823002
 20
6.554699
  0
SEQEND
  8
0
  0
POLYLINE
  8
ڲ-3
  6
CONTINUOUS
 66
     1
 40
0.012565
 41
0.012565
  0
VERTEX
  8
ڲ-3
  6
CONTINUOUS
 10
0.823002
 20
6.552605
  0
VERTEX
  8
ڲ-3
  6
CONTINUOUS
 10
0.802173
 20
6.483507
  0
VERTEX
  8
ڲ-3
  6
CONTINUOUS
 10
0.782412
 20
6.414017
  0
VERTEX
  8
ڲ-3
  6
CONTINUOUS
 10
0.763723
 20
6.344147
  0
VERTEX
  8
ڲ-3
  6
CONTINUOUS
 10
0.746114
 20
6.273910
  0
VERTEX
  8
ڲ-3
  6
CONTINUOUS
 10
0.729589
 20
6.203318
  0
VERTEX
  8
ڲ-3
  6
CONTINUOUS
 10
0.714156
 20
6.132384
  0
VERTEX
  8
ڲ-3
  6
CONTINUOUS
 10
0.699821
 20
6.061121
  0
VERTEX
  8
ڲ-3
  6
CONTINUOUS
 10
0.686589
 20
5.989540
  0
VERTEX
  8
ڲ-3
  6
CONTINUOUS
 10
0.674466
 20
5.917656
  0
VERTEX
  8
ڲ-3
  6
CONTINUOUS
 10
0.663459
 20
5.845479
  0
VERTEX
  8
ڲ-3
  6
CONTINUOUS
 10
0.653573
 20
5.773024
  0
VERTEX
  8
ڲ-3
  6
CONTINUOUS
 10
0.644815
 20
5.700302
  0
VERTEX
  8
ڲ-3
  6
CONTINUOUS
 10
0.637190
 20
5.627325
  0
VERTEX
  8
ڲ-3
  6
CONTINUOUS
 10
0.630706
 20
5.554107
  0
VERTEX
  8
ڲ-3
  6
CONTINUOUS
 10
0.625366
 20
5.480660
  0
VERTEX
  8
ڲ-3
  6
CONTINUOUS
 10
0.621179
 20
5.406997
  0
VERTEX
  8
ڲ-3
  6
CONTINUOUS
 10
0.618150
 20
5.333130
  0
VERTEX
  8
ڲ-3
  6
CONTINUOUS
 10
0.616284
 20
5.259072
  0
VERTEX
  8
ڲ-3
  6
CONTINUOUS
 10
0.615588
 20
5.184835
  0
VERTEX
  8
ڲ-3
  6
CONTINUOUS
 10
0.616069
 20
5.110432
  0
VERTEX
  8
ڲ-3
  6
CONTINUOUS
 10
0.617731
 20
5.035875
  0
VERTEX
  8
ڲ-3
  6
CONTINUOUS
 10
0.620582
 20
4.961177
  0
VERTEX
  8
ڲ-3
  6
CONTINUOUS
 10
0.624626
 20
4.886351
  0
VERTEX
  8
ڲ-3
  6
CONTINUOUS
 10
0.629871
 20
4.811409
  0
VERTEX
  8
ڲ-3
  6
CONTINUOUS
 10
0.636322
 20
4.736364
  0
VERTEX
  8
ڲ-3
  6
CONTINUOUS
 10
0.643985
 20
4.661227
  0
VERTEX
  8
ڲ-3
  6
CONTINUOUS
 10
0.652867
 20
4.586013
  0
VERTEX
  8
ڲ-3
  6
CONTINUOUS
 10
0.662973
 20
4.510733
  0
VERTEX
  8
ڲ-3
  6
CONTINUOUS
 10
0.674309
 20
4.435400
  0
VERTEX
  8
ڲ-3
  6
CONTINUOUS
 10
0.686882
 20
4.360027
  0
VERTEX
  8
ڲ-3
  6
CONTINUOUS
 10
0.686882
 20
4.360027
  0
VERTEX
  8
ڲ-3
  6
CONTINUOUS
 10
0.699360
 20
4.292122
  0
VERTEX
  8
ڲ-3
  6
CONTINUOUS
 10
0.712769
 20
4.224622
  0
VERTEX
  8
ڲ-3
  6
CONTINUOUS
 10
0.727103
 20
4.157535
  0
VERTEX
  8
ڲ-3
  6
CONTINUOUS
 10
0.742353
 20
4.090864
  0
VERTEX
  8
ڲ-3
  6
CONTINUOUS
 10
0.758511
 20
4.024615
  0
VERTEX
  8
ڲ-3
  6
CONTINUOUS
 10
0.775570
 20
3.958794
  0
VERTEX
  8
ڲ-3
  6
CONTINUOUS
 10
0.793522
 20
3.893407
  0
VERTEX
  8
ڲ-3
  6
CONTINUOUS
 10
0.812359
 20
3.828458
  0
VERTEX
  8
ڲ-3
  6
CONTINUOUS
 10
0.832073
 20
3.763953
  0
VERTEX
  8
ڲ-3
  6
CONTINUOUS
 10
0.852657
 20
3.699898
  0
VERTEX
  8
ڲ-3
  6
CONTINUOUS
 10
0.874102
 20
3.636299
  0
VERTEX
  8
ڲ-3
  6
CONTINUOUS
 10
0.896401
 20
3.573159
  0
VERTEX
  8
ڲ-3
  6
CONTINUOUS
 10
0.919546
 20
3.510486
  0
VERTEX
  8
ڲ-3
  6
CONTINUOUS
 10
0.943529
 20
3.448284
  0
VERTEX
  8
ڲ-3
  6
CONTINUOUS
 10
0.968343
 20
3.386559
  0
VERTEX
  8
ڲ-3
  6
CONTINUOUS
 10
0.993979
 20
3.325317
  0
VERTEX
  8
ڲ-3
  6
CONTINUOUS
 10
1.020430
 20
3.264562
  0
VERTEX
  8
ڲ-3
  6
CONTINUOUS
 10
1.047688
 20
3.204301
  0
VERTEX
  8
ڲ-3
  6
CONTINUOUS
 10
1.075745
 20
3.144538
  0
VERTEX
  8
ڲ-3
  6
CONTINUOUS
 10
1.104594
 20
3.085280
  0
VERTEX
  8
ڲ-3
  6
CONTINUOUS
 10
1.134226
 20
3.026531
  0
VERTEX
  8
ڲ-3
  6
CONTINUOUS
 10
1.164633
 20
2.968298
  0
VERTEX
  8
ڲ-3
  6
CONTINUOUS
 10
1.195809
 20
2.910585
  0
VERTEX
  8
ڲ-3
  6
CONTINUOUS
 10
1.227744
 20
2.853398
  0
VERTEX
  8
ڲ-3
  6
CONTINUOUS
 10
1.260432
 20
2.796743
  0
VERTEX
  8
ڲ-3
  6
CONTINUOUS
 10
1.293864
 20
2.740624
  0
VERTEX
  8
ڲ-3
  6
CONTINUOUS
 10
1.328033
 20
2.685048
  0
VERTEX
  8
ڲ-3
  6
CONTINUOUS
 10
1.362931
 20
2.630021
  0
VERTEX
  8
ڲ-3
  6
CONTINUOUS
 10
1.398550
 20
2.575546
  0
VERTEX
  8
ڲ-3
  6
CONTINUOUS
 10
1.434882
 20
2.521630
  0
VERTEX
  8
ڲ-3
  6
CONTINUOUS
 10
1.471919
 20
2.468279
  0
VERTEX
  8
ڲ-3
  6
CONTINUOUS
 10
1.509654
 20
2.415497
  0
VERTEX
  8
ڲ-3
  6
CONTINUOUS
 10
1.548079
 20
2.363291
  0
VERTEX
  8
ڲ-3
  6
CONTINUOUS
 10
1.587186
 20
2.311665
  0
VERTEX
  8
ڲ-3
  6
CONTINUOUS
 10
1.626967
 20
2.260625
  0
VERTEX
  8
ڲ-3
  6
CONTINUOUS
 10
1.667414
 20
2.210177
  0
VERTEX
  8
ڲ-3
  6
CONTINUOUS
 10
1.708520
 20
2.160326
  0
VERTEX
  8
ڲ-3
  6
CONTINUOUS
 10
1.750276
 20
2.111078
  0
VERTEX
  8
ڲ-3
  6
CONTINUOUS
 10
1.792676
 20
2.062438
  0
VERTEX
  8
ڲ-3
  6
CONTINUOUS
 10
1.835710
 20
2.014410
  0
VERTEX
  8
ڲ-3
  6
CONTINUOUS
 10
1.879372
 20
1.967002
  0
VERTEX
  8
ڲ-3
  6
CONTINUOUS
 10
1.923653
 20
1.920219
  0
VERTEX
  8
ڲ-3
  6
CONTINUOUS
 10
1.968546
 20
1.874065
  0
VERTEX
  8
ڲ-3
  6
CONTINUOUS
 10
2.014043
 20
1.828546
  0
VERTEX
  8
ڲ-3
  6
CONTINUOUS
 10
2.060136
 20
1.783668
  0
VERTEX
  8
ڲ-3
  6
CONTINUOUS
 10
2.106817
 20
1.739436
  0
VERTEX
  8
ڲ-3
  6
CONTINUOUS
 10
2.154079
 20
1.695856
  0
VERTEX
  8
ڲ-3
  6
CONTINUOUS
 10
2.201913
 20
1.652933
  0
VERTEX
  8
ڲ-3
  6
CONTINUOUS
 10
2.250312
 20
1.610673
  0
VERTEX
  8
ڲ-3
  6
CONTINUOUS
 10
2.299268
 20
1.569080
  0
VERTEX
  8
ڲ-3
  6
CONTINUOUS
 10
2.348773
 20
1.528161
  0
VERTEX
  8
ڲ-3
  6
CONTINUOUS
 10
2.398819
 20
1.487921
  0
VERTEX
  8
ڲ-3
  6
CONTINUOUS
 10
2.449399
 20
1.448366
  0
VERTEX
  8
ڲ-3
  6
CONTINUOUS
 10
2.500505
 20
1.409500
  0
VERTEX
  8
ڲ-3
  6
CONTINUOUS
 10
2.552129
 20
1.371330
  0
VERTEX
  8
ڲ-3
  6
CONTINUOUS
 10
2.604262
 20
1.333860
  0
VERTEX
  8
ڲ-3
  6
CONTINUOUS
 10
2.656898
 20
1.297097
  0
VERTEX
  8
ڲ-3
  6
CONTINUOUS
 10
2.710029
 20
1.261045
  0
VERTEX
  8
ڲ-3
  6
CONTINUOUS
 10
2.763646
 20
1.225711
  0
VERTEX
  8
ڲ-3
  6
CONTINUOUS
 10
2.817743
 20
1.191099
  0
VERTEX
  8
ڲ-3
  6
CONTINUOUS
 10
2.872310
 20
1.157216
  0
VERTEX
  8
ڲ-3
  6
CONTINUOUS
 10
2.927340
 20
1.124065
  0
VERTEX
  8
ڲ-3
  6
CONTINUOUS
 10
2.982826
 20
1.091654
  0
VERTEX
  8
ڲ-3
  6
CONTINUOUS
 10
3.038760
 20
1.059988
  0
VERTEX
  8
ڲ-3
  6
CONTINUOUS
 10
3.095133
 20
1.029071
  0
VERTEX
  8
ڲ-3
  6
CONTINUOUS
 10
3.151939
 20
0.998910
  0
VERTEX
  8
ڲ-3
  6
CONTINUOUS
 10
3.209168
 20
0.969509
  0
VERTEX
  8
ڲ-3
  6
CONTINUOUS
 10
3.266814
 20
0.940875
  0
VERTEX
  8
ڲ-3
  6
CONTINUOUS
 10
3.324869
 20
0.913013
  0
VERTEX
  8
ڲ-3
  6
CONTINUOUS
 10
3.383324
 20
0.885928
  0
VERTEX
  8
ڲ-3
  6
CONTINUOUS
 10
3.442172
 20
0.859625
  0
VERTEX
  8
ڲ-3
  6
CONTINUOUS
 10
3.501406
 20
0.834111
  0
VERTEX
  8
ڲ-3
  6
CONTINUOUS
 10
3.561017
 20
0.809390
  0
VERTEX
  8
ڲ-3
  6
CONTINUOUS
 10
3.620997
 20
0.785469
  0
VERTEX
  8
ڲ-3
  6
CONTINUOUS
 10
3.681339
 20
0.762352
  0
VERTEX
  8
ڲ-3
  6
CONTINUOUS
 10
3.742035
 20
0.740045
  0
VERTEX
  8
ڲ-3
  6
CONTINUOUS
 10
3.803077
 20
0.718553
  0
VERTEX
  8
ڲ-3
  6
CONTINUOUS
 10
3.864457
 20
0.697883
  0
VERTEX
  8
ڲ-3
  6
CONTINUOUS
 10
3.926168
 20
0.678038
  0
VERTEX
  8
ڲ-3
  6
CONTINUOUS
 10
3.988201
 20
0.659026
  0
VERTEX
  8
ڲ-3
  6
CONTINUOUS
 10
4.050549
 20
0.640851
  0
VERTEX
  8
ڲ-3
  6
CONTINUOUS
 10
4.113205
 20
0.623518
  0
VERTEX
  8
ڲ-3
  6
CONTINUOUS
 10
4.176159
 20
0.607034
  0
VERTEX
  8
ڲ-3
  6
CONTINUOUS
 10
4.239405
 20
0.591403
  0
VERTEX
  8
ڲ-3
  6
CONTINUOUS
 10
4.302934
 20
0.576632
  0
VERTEX
  8
ڲ-3
  6
CONTINUOUS
 10
4.366740
 20
0.562725
  0
VERTEX
  8
ڲ-3
  6
CONTINUOUS
 10
4.430813
 20
0.549688
  0
VERTEX
  8
ڲ-3
  6
CONTINUOUS
 10
4.495146
 20
0.537527
  0
VERTEX
  8
ڲ-3
  6
CONTINUOUS
 10
4.559732
 20
0.526247
  0
VERTEX
  8
ڲ-3
  6
CONTINUOUS
 10
4.624562
 20
0.515853
  0
VERTEX
  8
ڲ-3
  6
CONTINUOUS
 10
4.689629
 20
0.506351
  0
VERTEX
  8
ڲ-3
  6
CONTINUOUS
 10
4.754925
 20
0.497747
  0
VERTEX
  8
ڲ-3
  6
CONTINUOUS
 10
4.820442
 20
0.490045
  0
VERTEX
  8
ڲ-3
  6
CONTINUOUS
 10
4.886173
 20
0.483251
  0
VERTEX
  8
ڲ-3
  6
CONTINUOUS
 10
4.952109
 20
0.477372
  0
VERTEX
  8
ڲ-3
  6
CONTINUOUS
 10
5.018242
 20
0.472411
  0
VERTEX
  8
ڲ-3
  6
CONTINUOUS
 10
5.084565
 20
0.468375
  0
VERTEX
  8
ڲ-3
  6
CONTINUOUS
 10
5.151071
 20
0.465269
  0
VERTEX
  8
ڲ-3
  6
CONTINUOUS
 10
5.217751
 20
0.463099
  0
VERTEX
  8
ڲ-3
  6
CONTINUOUS
 10
5.284597
 20
0.461870
  0
VERTEX
  8
ڲ-3
  6
CONTINUOUS
 10
5.351601
 20
0.461587
  0
VERTEX
  8
ڲ-3
  6
CONTINUOUS
 10
5.418757
 20
0.462257
  0
VERTEX
  8
ڲ-3
  6
CONTINUOUS
 10
5.486055
 20
0.463883
  0
VERTEX
  8
ڲ-3
  6
CONTINUOUS
 10
5.553489
 20
0.466473
  0
VERTEX
  8
ڲ-3
  6
CONTINUOUS
 10
5.621050
 20
0.470031
  0
VERTEX
  8
ڲ-3
  6
CONTINUOUS
 10
5.688731
 20
0.474562
  0
VERTEX
  8
ڲ-3
  6
CONTINUOUS
 10
5.756523
 20
0.480073
  0
VERTEX
  8
ڲ-3
  6
CONTINUOUS
 10
5.824419
 20
0.486569
  0
VERTEX
  8
ڲ-3
  6
CONTINUOUS
 10
5.892412
 20
0.494055
  0
VERTEX
  8
ڲ-3
  6
CONTINUOUS
 10
5.960493
 20
0.502536
  0
VERTEX
  8
ڲ-3
  6
CONTINUOUS
 10
6.028654
 20
0.512019
  0
VERTEX
  8
ڲ-3
  6
CONTINUOUS
 10
6.096888
 20
0.522508
  0
VERTEX
  8
ڲ-3
  6
CONTINUOUS
 10
6.165187
 20
0.534009
  0
VERTEX
  8
ڲ-3
  6
CONTINUOUS
 10
6.165187
 20
0.534009
  0
VERTEX
  8
ڲ-3
  6
CONTINUOUS
 10
6.168832
 20
0.534552
  0
VERTEX
  8
ڲ-3
  6
CONTINUOUS
 10
6.172012
 20
0.535560
  0
VERTEX
  8
ڲ-3
  6
CONTINUOUS
 10
6.175658
 20
0.536103
  0
VERTEX
  8
ڲ-3
  6
CONTINUOUS
 10
6.169213
 20
0.572175
  0
VERTEX
  8
ڲ-3
  6
CONTINUOUS
 10
6.161625
 20
0.614925
  0
VERTEX
  8
ڲ-3
  6
CONTINUOUS
 10
6.152923
 20
0.664165
  0
VERTEX
  8
ڲ-3
  6
CONTINUOUS
 10
6.143139
 20
0.719704
  0
VERTEX
  8
ڲ-3
  6
CONTINUOUS
 10
6.132301
 20
0.781352
  0
VERTEX
  8
ڲ-3
  6
CONTINUOUS
 10
6.120439
 20
0.848919
  0
VERTEX
  8
ڲ-3
  6
CONTINUOUS
 10
6.107583
 20
0.922217
  0
VERTEX
  8
ڲ-3
  6
CONTINUOUS
 10
6.093763
 20
1.001054
  0
VERTEX
  8
ڲ-3
  6
CONTINUOUS
 10
6.079008
 20
1.085240
  0
VERTEX
  8
ڲ-3
  6
CONTINUOUS
 10
6.063349
 20
1.174587
  0
VERTEX
  8
ڲ-3
  6
CONTINUOUS
 10
6.046815
 20
1.268904
  0
VERTEX
  8
ڲ-3
  6
CONTINUOUS
 10
6.029435
 20
1.368001
  0
VERTEX
  8
ڲ-3
  6
CONTINUOUS
 10
6.011241
 20
1.471689
  0
VERTEX
  8
ڲ-3
  6
CONTINUOUS
 10
5.992261
 20
1.579777
  0
VERTEX
  8
ڲ-3
  6
CONTINUOUS
 10
5.972525
 20
1.692076
  0
VERTEX
  8
ڲ-3
  6
CONTINUOUS
 10
5.968879
 20
1.692076
  0
VERTEX
  8
ڲ-3
  6
CONTINUOUS
 10
5.965699
 20
1.692076
  0
VERTEX
  8
ڲ-3
  6
CONTINUOUS
 10
5.962054
 20
1.692076
  0
VERTEX
  8
ڲ-3
  6
CONTINUOUS
 10
5.893947
 20
1.680703
  0
VERTEX
  8
ڲ-3
  6
CONTINUOUS
 10
5.825929
 20
1.670674
  0
VERTEX
  8
ڲ-3
  6
CONTINUOUS
 10
5.758014
 20
1.661978
  0
VERTEX
  8
ڲ-3
  6
CONTINUOUS
 10
5.690214
 20
1.654606
  0
VERTEX
  8
ڲ-3
  6
CONTINUOUS
 10
5.622545
 20
1.648549
  0
VERTEX
  8
ڲ-3
  6
CONTINUOUS
 10
5.555019
 20
1.643796
  0
VERTEX
  8
ڲ-3
  6
CONTINUOUS
 10
5.487651
 20
1.640337
  0
VERTEX
  8
ڲ-3
  6
CONTINUOUS
 10
5.420454
 20
1.638164
  0
VERTEX
  8
ڲ-3
  6
CONTINUOUS
 10
5.353442
 20
1.637267
  0
VERTEX
  8
ڲ-3
  6
CONTINUOUS
 10
5.286629
 20
1.637635
  0
VERTEX
  8
ڲ-3
  6
CONTINUOUS
 10
5.220029
 20
1.639259
  0
VERTEX
  8
ڲ-3
  6
CONTINUOUS
 10
5.153655
 20
1.642129
  0
VERTEX
  8
ڲ-3
  6
CONTINUOUS
 10
5.087522
 20
1.646236
  0
VERTEX
  8
ڲ-3
  6
CONTINUOUS
 10
5.021642
 20
1.651570
  0
VERTEX
  8
ڲ-3
  6
CONTINUOUS
 10
4.956031
 20
1.658121
  0
VERTEX
  8
ڲ-3
  6
CONTINUOUS
 10
4.890701
 20
1.665880
  0
VERTEX
  8
ڲ-3
  6
CONTINUOUS
 10
4.825666
 20
1.674837
  0
VERTEX
  8
ڲ-3
  6
CONTINUOUS
 10
4.760941
 20
1.684981
  0
VERTEX
  8
ڲ-3
  6
CONTINUOUS
 10
4.696538
 20
1.696305
  0
VERTEX
  8
ڲ-3
  6
CONTINUOUS
 10
4.632473
 20
1.708797
  0
VERTEX
  8
ڲ-3
  6
CONTINUOUS
 10
4.568758
 20
1.722448
  0
VERTEX
  8
ڲ-3
  6
CONTINUOUS
 10
4.505407
 20
1.737248
  0
VERTEX
  8
ڲ-3
  6
CONTINUOUS
 10
4.442434
 20
1.753188
  0
VERTEX
  8
ڲ-3
  6
CONTINUOUS
 10
4.379854
 20
1.770258
  0
VERTEX
  8
ڲ-3
  6
CONTINUOUS
 10
4.317679
 20
1.788448
  0
VERTEX
  8
ڲ-3
  6
CONTINUOUS
 10
4.255924
 20
1.807749
  0
VERTEX
  8
ڲ-3
  6
CONTINUOUS
 10
4.194602
 20
1.828151
  0
VERTEX
  8
ڲ-3
  6
CONTINUOUS
 10
4.133727
 20
1.849643
  0
VERTEX
  8
ڲ-3
  6
CONTINUOUS
 10
4.073313
 20
1.872218
  0
VERTEX
  8
ڲ-3
  6
CONTINUOUS
 10
4.013374
 20
1.895864
  0
VERTEX
  8
ڲ-3
  6
CONTINUOUS
 10
3.953923
 20
1.920572
  0
VERTEX
  8
ڲ-3
  6
CONTINUOUS
 10
3.894975
 20
1.946332
  0
VERTEX
  8
ڲ-3
  6
CONTINUOUS
 10
3.836542
 20
1.973136
  0
VERTEX
  8
ڲ-3
  6
CONTINUOUS
 10
3.778640
 20
2.000972
  0
VERTEX
  8
ڲ-3
  6
CONTINUOUS
 10
3.721281
 20
2.029831
  0
VERTEX
  8
ڲ-3
  6
CONTINUOUS
 10
3.664479
 20
2.059704
  0
VERTEX
  8
ڲ-3
  6
CONTINUOUS
 10
3.608249
 20
2.090581
  0
VERTEX
  8
ڲ-3
  6
CONTINUOUS
 10
3.552604
 20
2.122452
  0
VERTEX
  8
ڲ-3
  6
CONTINUOUS
 10
3.497557
 20
2.155308
  0
VERTEX
  8
ڲ-3
  6
CONTINUOUS
 10
3.443123
 20
2.189138
  0
VERTEX
  8
ڲ-3
  6
CONTINUOUS
 10
3.389316
 20
2.223934
  0
VERTEX
  8
ڲ-3
  6
CONTINUOUS
 10
3.336148
 20
2.259684
  0
VERTEX
  8
ڲ-3
  6
CONTINUOUS
 10
3.283635
 20
2.296381
  0
VERTEX
  8
ڲ-3
  6
CONTINUOUS
 10
3.231789
 20
2.334013
  0
VERTEX
  8
ڲ-3
  6
CONTINUOUS
 10
3.180625
 20
2.372572
  0
VERTEX
  8
ڲ-3
  6
CONTINUOUS
 10
3.130156
 20
2.412048
  0
VERTEX
  8
ڲ-3
  6
CONTINUOUS
 10
3.080397
 20
2.452430
  0
VERTEX
  8
ڲ-3
  6
CONTINUOUS
 10
3.031360
 20
2.493710
  0
VERTEX
  8
ڲ-3
  6
CONTINUOUS
 10
2.983060
 20
2.535877
  0
VERTEX
  8
ڲ-3
  6
CONTINUOUS
 10
2.935510
 20
2.578922
  0
VERTEX
  8
ڲ-3
  6
CONTINUOUS
 10
2.888725
 20
2.622835
  0
VERTEX
  8
ڲ-3
  6
CONTINUOUS
 10
2.842718
 20
2.667606
  0
VERTEX
  8
ڲ-3
  6
CONTINUOUS
 10
2.797503
 20
2.713226
  0
VERTEX
  8
ڲ-3
  6
CONTINUOUS
 10
2.753093
 20
2.759685
  0
VERTEX
  8
ڲ-3
  6
CONTINUOUS
 10
2.709503
 20
2.806974
  0
VERTEX
  8
ڲ-3
  6
CONTINUOUS
 10
2.666745
 20
2.855082
  0
VERTEX
  8
ڲ-3
  6
CONTINUOUS
 10
2.624835
 20
2.904000
  0
VERTEX
  8
ڲ-3
  6
CONTINUOUS
 10
2.583786
 20
2.953718
  0
VERTEX
  8
ڲ-3
  6
CONTINUOUS
 10
2.543612
 20
3.004227
  0
VERTEX
  8
ڲ-3
  6
CONTINUOUS
 10
2.504325
 20
3.055516
  0
VERTEX
  8
ڲ-3
  6
CONTINUOUS
 10
2.465941
 20
3.107577
  0
VERTEX
  8
ڲ-3
  6
CONTINUOUS
 10
2.428473
 20
3.160399
  0
VERTEX
  8
ڲ-3
  6
CONTINUOUS
 10
2.391935
 20
3.213973
  0
VERTEX
  8
ڲ-3
  6
CONTINUOUS
 10
2.356340
 20
3.268289
  0
VERTEX
  8
ڲ-3
  6
CONTINUOUS
 10
2.321703
 20
3.323337
  0
VERTEX
  8
ڲ-3
  6
CONTINUOUS
 10
2.288036
 20
3.379108
  0
VERTEX
  8
ڲ-3
  6
CONTINUOUS
 10
2.255355
 20
3.435592
  0
VERTEX
  8
ڲ-3
  6
CONTINUOUS
 10
2.223672
 20
3.492779
  0
VERTEX
  8
ڲ-3
  6
CONTINUOUS
 10
2.193002
 20
3.550660
  0
VERTEX
  8
ڲ-3
  6
CONTINUOUS
 10
2.163358
 20
3.609225
  0
VERTEX
  8
ڲ-3
  6
CONTINUOUS
 10
2.134754
 20
3.668463
  0
VERTEX
  8
ڲ-3
  6
CONTINUOUS
 10
2.107204
 20
3.728366
  0
VERTEX
  8
ڲ-3
  6
CONTINUOUS
 10
2.080722
 20
3.788924
  0
VERTEX
  8
ڲ-3
  6
CONTINUOUS
 10
2.055321
 20
3.850127
  0
VERTEX
  8
ڲ-3
  6
CONTINUOUS
 10
2.031016
 20
3.911965
  0
VERTEX
  8
ڲ-3
  6
CONTINUOUS
 10
2.007819
 20
3.974429
  0
VERTEX
  8
ڲ-3
  6
CONTINUOUS
 10
1.985745
 20
4.037509
  0
VERTEX
  8
ڲ-3
  6
CONTINUOUS
 10
1.964808
 20
4.101195
  0
VERTEX
  8
ڲ-3
  6
CONTINUOUS
 10
1.945021
 20
4.165478
  0
VERTEX
  8
ڲ-3
  6
CONTINUOUS
 10
1.926399
 20
4.230348
  0
VERTEX
  8
ڲ-3
  6
CONTINUOUS
 10
1.908954
 20
4.295795
  0
VERTEX
  8
ڲ-3
  6
CONTINUOUS
 10
1.892701
 20
4.361809
  0
VERTEX
  8
ڲ-3
  6
CONTINUOUS
 10
1.877654
 20
4.428381
  0
VERTEX
  8
ڲ-3
  6
CONTINUOUS
 10
1.863826
 20
4.495501
  0
VERTEX
  8
ڲ-3
  6
CONTINUOUS
 10
1.851231
 20
4.563160
  0
VERTEX
  8
ڲ-3
  6
CONTINUOUS
 10
1.851231
 20
4.563160
  0
VERTEX
  8
ڲ-3
  6
CONTINUOUS
 10
1.838652
 20
4.640543
  0
VERTEX
  8
ڲ-3
  6
CONTINUOUS
 10
1.827752
 20
4.717897
  0
VERTEX
  8
ڲ-3
  6
CONTINUOUS
 10
1.818523
 20
4.795192
  0
VERTEX
  8
ڲ-3
  6
CONTINUOUS
 10
1.810956
 20
4.872399
  0
VERTEX
  8
ڲ-3
  6
CONTINUOUS
 10
1.805044
 20
4.949487
  0
VERTEX
  8
ڲ-3
  6
CONTINUOUS
 10
1.800778
 20
5.026428
  0
VERTEX
  8
ڲ-3
  6
CONTINUOUS
 10
1.798150
 20
5.103193
  0
VERTEX
  8
ڲ-3
  6
CONTINUOUS
 10
1.797152
 20
5.179750
  0
VERTEX
  8
ڲ-3
  6
CONTINUOUS
 10
1.797774
 20
5.256072
  0
VERTEX
  8
ڲ-3
  6
CONTINUOUS
 10
1.800010
 20
5.332128
  0
VERTEX
  8
ڲ-3
  6
CONTINUOUS
 10
1.803851
 20
5.407889
  0
VERTEX
  8
ڲ-3
  6
CONTINUOUS
 10
1.809289
 20
5.483325
  0
VERTEX
  8
ڲ-3
  6
CONTINUOUS
 10
1.816314
 20
5.558408
  0
VERTEX
  8
ڲ-3
  6
CONTINUOUS
 10
1.824920
 20
5.633107
  0
VERTEX
  8
ڲ-3
  6
CONTINUOUS
 10
1.835097
 20
5.707393
  0
VERTEX
  8
ڲ-3
  6
CONTINUOUS
 10
1.846839
 20
5.781236
  0
VERTEX
  8
ڲ-3
  6
CONTINUOUS
 10
1.860135
 20
5.854608
  0
VERTEX
  8
ڲ-3
  6
CONTINUOUS
 10
1.874978
 20
5.927478
  0
VERTEX
  8
ڲ-3
  6
CONTINUOUS
 10
1.891360
 20
5.999817
  0
VERTEX
  8
ڲ-3
  6
CONTINUOUS
 10
1.909273
 20
6.071595
  0
VERTEX
  8
ڲ-3
  6
CONTINUOUS
 10
1.928708
 20
6.142783
  0
VERTEX
  8
ڲ-3
  6
CONTINUOUS
 10
1.949657
 20
6.213352
  0
VERTEX
  8
ڲ-3
  6
CONTINUOUS
 10
1.934937
 20
6.218066
  0
VERTEX
  8
ڲ-3
  6
CONTINUOUS
 10
1.894280
 20
6.230563
  0
VERTEX
  8
ڲ-3
  6
CONTINUOUS
 10
1.831680
 20
6.249640
  0
VERTEX
  8
ڲ-3
  6
CONTINUOUS
 10
1.751132
 20
6.274088
  0
VERTEX
  8
ڲ-3
  6
CONTINUOUS
 10
1.656630
 20
6.302703
  0
VERTEX
  8
ڲ-3
  6
CONTINUOUS
 10
1.552170
 20
6.334277
  0
VERTEX
  8
ڲ-3
  6
CONTINUOUS
 10
1.441745
 20
6.367605
  0
VERTEX
  8
ڲ-3
  6
CONTINUOUS
 10
1.329350
 20
6.401480
  0
VERTEX
  8
ڲ-3
  6
CONTINUOUS
 10
1.218981
 20
6.434696
  0
VERTEX
  8
ڲ-3
  6
CONTINUOUS
 10
1.114632
 20
6.466047
  0
VERTEX
  8
ڲ-3
  6
CONTINUOUS
 10
1.020298
 20
6.494326
  0
VERTEX
  8
ڲ-3
  6
CONTINUOUS
 10
0.939973
 20
6.518328
  0
VERTEX
  8
ڲ-3
  6
CONTINUOUS
 10
0.877652
 20
6.536846
  0
VERTEX
  8
ڲ-3
  6
CONTINUOUS
 10
0.837331
 20
6.548674
  0
VERTEX
  8
ڲ-3
  6
CONTINUOUS
 10
0.823002
 20
6.552605
  0
SEQEND
  8
0
  0
POLYLINE
  8
ڲ-3
  6
DOT
 66
     1
 40
0.012565
 41
0.012565
  0
VERTEX
  8
ڲ-3
  6
DOT
 10
1.949657
 20
7.547328
  0
VERTEX
  8
ڲ-3
  6
DOT
 10
1.905857
 20
7.484114
  0
VERTEX
  8
ڲ-3
  6
DOT
 10
1.863164
 20
7.420131
  0
VERTEX
  8
ڲ-3
  6
DOT
 10
1.821600
 20
7.355390
  0
VERTEX
  8
ڲ-3
  6
DOT
 10
1.781183
 20
7.289905
  0
VERTEX
  8
ڲ-3
  6
DOT
 10
1.741936
 20
7.223689
  0
VERTEX
  8
ڲ-3
  6
DOT
 10
1.703877
 20
7.156754
  0
VERTEX
  8
ڲ-3
  6
DOT
 10
1.667029
 20
7.089113
  0
VERTEX
  8
ڲ-3
  6
DOT
 10
1.631410
 20
7.020779
  0
VERTEX
  8
ڲ-3
  6
DOT
 10
1.597042
 20
6.951765
  0
VERTEX
  8
ڲ-3
  6
DOT
 10
1.563945
 20
6.882084
  0
VERTEX
  8
ڲ-3
  6
DOT
 10
1.532140
 20
6.811747
  0
VERTEX
  8
ڲ-3
  6
DOT
 10
1.501647
 20
6.740769
  0
VERTEX
  8
ڲ-3
  6
DOT
 10
1.472486
 20
6.669162
  0
VERTEX
  8
ڲ-3
  6
DOT
 10
1.444678
 20
6.596938
  0
VERTEX
  8
ڲ-3
  6
DOT
 10
1.418243
 20
6.524110
  0
VERTEX
  8
ڲ-3
  6
DOT
 10
1.393203
 20
6.450692
  0
VERTEX
  8
ڲ-3
  6
DOT
 10
1.369576
 20
6.376696
  0
SEQEND
  8
0
  0
POLYLINE
  8
ڲ-3
  6
DOT
 66
     1
 40
0.012565
 41
0.012565
  0
VERTEX
  8
ڲ-3
  6
DOT
 10
1.369576
 20
6.376696
  0
VERTEX
  8
ڲ-3
  6
DOT
 10
1.348221
 20
6.306867
  0
VERTEX
  8
ڲ-3
  6
DOT
 10
1.328136
 20
6.236571
  0
VERTEX
  8
ڲ-3
  6
DOT
 10
1.309330
 20
6.165825
  0
VERTEX
  8
ڲ-3
  6
DOT
 10
1.291809
 20
6.094644
  0
VERTEX
  8
ڲ-3
  6
DOT
 10
1.275581
 20
6.023046
  0
VERTEX
  8
ڲ-3
  6
DOT
 10
1.260653
 20
5.951047
  0
VERTEX
  8
ڲ-3
  6
DOT
 10
1.247031
 20
5.878664
  0
VERTEX
  8
ڲ-3
  6
DOT
 10
1.234723
 20
5.805912
  0
VERTEX
  8
ڲ-3
  6
DOT
 10
1.223736
 20
5.732809
  0
VERTEX
  8
ڲ-3
  6
DOT
 10
1.214078
 20
5.659370
  0
VERTEX
  8
ڲ-3
  6
DOT
 10
1.205755
 20
5.585613
  0
VERTEX
  8
ڲ-3
  6
DOT
 10
1.198774
 20
5.511553
  0
VERTEX
  8
ڲ-3
  6
DOT
 10
1.193144
 20
5.437207
  0
VERTEX
  8
ڲ-3
  6
DOT
 10
1.188870
 20
5.362591
  0
VERTEX
  8
ڲ-3
  6
DOT
 10
1.185960
 20
5.287723
  0
VERTEX
  8
ڲ-3
  6
DOT
 10
1.184421
 20
5.212618
  0
VERTEX
  8
ڲ-3
  6
DOT
 10
1.184261
 20
5.137293
  0
VERTEX
  8
ڲ-3
  6
DOT
 10
1.185486
 20
5.061764
  0
VERTEX
  8
ڲ-3
  6
DOT
 10
1.188104
 20
4.986047
  0
VERTEX
  8
ڲ-3
  6
DOT
 10
1.192121
 20
4.910160
  0
VERTEX
  8
ڲ-3
  6
DOT
 10
1.197546
 20
4.834118
  0
VERTEX
  8
ڲ-3
  6
DOT
 10
1.204384
 20
4.757939
  0
VERTEX
  8
ڲ-3
  6
DOT
 10
1.212644
 20
4.681638
  0
VERTEX
  8
ڲ-3
  6
DOT
 10
1.222332
 20
4.605231
  0
VERTEX
  8
ڲ-3
  6
DOT
 10
1.233455
 20
4.528737
  0
VERTEX
  8
ڲ-3
  6
DOT
 10
1.246021
 20
4.452170
  0
SEQEND
  8
0
  0
POLYLINE
  8
ڲ-3
  6
DOT
 66
     1
 40
0.012565
 41
0.012565
  0
VERTEX
  8
ڲ-3
  6
DOT
 10
1.246021
 20
4.452170
  0
VERTEX
  8
ڲ-3
  6
DOT
 10
1.258614
 20
4.384244
  0
VERTEX
  8
ڲ-3
  6
DOT
 10
1.272273
 20
4.316784
  0
VERTEX
  8
ڲ-3
  6
DOT
 10
1.286987
 20
4.249796
  0
VERTEX
  8
ڲ-3
  6
DOT
 10
1.302746
 20
4.183286
  0
VERTEX
  8
ڲ-3
  6
DOT
 10
1.319539
 20
4.117263
  0
VERTEX
  8
ڲ-3
  6
DOT
 10
1.337357
 20
4.051733
  0
VERTEX
  8
ڲ-3
  6
DOT
 10
1.356188
 20
3.986703
  0
VERTEX
  8
ڲ-3
  6
DOT
 10
1.376024
 20
3.922180
  0
VERTEX
  8
ڲ-3
  6
DOT
 10
1.396854
 20
3.858173
  0
VERTEX
  8
ڲ-3
  6
DOT
 10
1.418666
 20
3.794687
  0
VERTEX
  8
ڲ-3
  6
DOT
 10
1.441452
 20
3.731729
  0
VERTEX
  8
ڲ-3
  6
DOT
 10
1.465201
 20
3.669308
  0
VERTEX
  8
ڲ-3
  6
DOT
 10
1.489903
 20
3.607429
  0
VERTEX
  8
ڲ-3
  6
DOT
 10
1.515547
 20
3.546101
  0
VERTEX
  8
ڲ-3
  6
DOT
 10
1.542123
 20
3.485330
  0
VERTEX
  8
ڲ-3
  6
DOT
 10
1.569621
 20
3.425123
  0
VERTEX
  8
ڲ-3
  6
DOT
 10
1.598031
 20
3.365487
  0
VERTEX
  8
ڲ-3
  6
DOT
 10
1.627343
 20
3.306430
  0
VERTEX
  8
ڲ-3
  6
DOT
 10
1.657545
 20
3.247959
  0
VERTEX
  8
ڲ-3
  6
DOT
 10
1.688629
 20
3.190080
  0
VERTEX
  8
ڲ-3
  6
DOT
 10
1.720583
 20
3.132802
  0
VERTEX
  8
ڲ-3
  6
DOT
 10
1.753398
 20
3.076130
  0
VERTEX
  8
ڲ-3
  6
DOT
 10
1.787063
 20
3.020072
  0
VERTEX
  8
ڲ-3
  6
DOT
 10
1.821568
 20
2.964636
  0
VERTEX
  8
ڲ-3
  6
DOT
 10
1.856903
 20
2.909828
  0
VERTEX
  8
ڲ-3
  6
DOT
 10
1.893057
 20
2.855655
  0
VERTEX
  8
ڲ-3
  6
DOT
 10
1.930021
 20
2.802125
  0
VERTEX
  8
ڲ-3
  6
DOT
 10
1.967784
 20
2.749244
  0
VERTEX
  8
ڲ-3
  6
DOT
 10
2.006335
 20
2.697020
  0
VERTEX
  8
ڲ-3
  6
DOT
 10
2.045665
 20
2.645460
  0
VERTEX
  8
ڲ-3
  6
DOT
 10
2.085763
 20
2.594571
  0
VERTEX
  8
ڲ-3
  6
DOT
 10
2.126620
 20
2.544360
  0
VERTEX
  8
ڲ-3
  6
DOT
 10
2.168224
 20
2.494834
  0
VERTEX
  8
ڲ-3
  6
DOT
 10
2.210566
 20
2.446001
  0
VERTEX
  8
ڲ-3
  6
DOT
 10
2.253635
 20
2.397867
  0
VERTEX
  8
ڲ-3
  6
DOT
 10
2.297421
 20
2.350439
  0
VERTEX
  8
ڲ-3
  6
DOT
 10
2.341914
 20
2.303725
  0
VERTEX
  8
ڲ-3
  6
DOT
 10
2.387104
 20
2.257732
  0
VERTEX
  8
ڲ-3
  6
DOT
 10
2.432980
 20
2.212466
  0
VERTEX
  8
ڲ-3
  6
DOT
 10
2.479532
 20
2.167936
  0
VERTEX
  8
ڲ-3
  6
DOT
 10
2.526750
 20
2.124147
  0
VERTEX
  8
ڲ-3
  6
DOT
 10
2.574624
 20
2.081108
  0
VERTEX
  8
ڲ-3
  6
DOT
 10
2.623143
 20
2.038825
  0
VERTEX
  8
ڲ-3
  6
DOT
 10
2.672297
 20
1.997305
  0
VERTEX
  8
ڲ-3
  6
DOT
 10
2.722077
 20
1.956556
  0
VERTEX
  8
ڲ-3
  6
DOT
 10
2.772470
 20
1.916584
  0
VERTEX
  8
ڲ-3
  6
DOT
 10
2.823469
 20
1.877397
  0
VERTEX
  8
ڲ-3
  6
DOT
 10
2.875061
 20
1.839002
  0
VERTEX
  8
ڲ-3
  6
DOT
 10
2.927237
 20
1.801406
  0
VERTEX
  8
ڲ-3
  6
DOT
 10
2.979987
 20
1.764616
  0
VERTEX
  8
ڲ-3
  6
DOT
 10
3.033301
 20
1.728639
  0
VERTEX
  8
ڲ-3
  6
DOT
 10
3.087167
 20
1.693482
  0
VERTEX
  8
ڲ-3
  6
DOT
 10
3.141577
 20
1.659153
  0
VERTEX
  8
ڲ-3
  6
DOT
 10
3.196519
 20
1.625658
  0
VERTEX
  8
ڲ-3
  6
DOT
 10
3.251984
 20
1.593004
  0
VERTEX
  8
ڲ-3
  6
DOT
 10
3.307961
 20
1.561199
  0
VERTEX
  8
ڲ-3
  6
DOT
 10
3.364440
 20
1.530251
  0
VERTEX
  8
ڲ-3
  6
DOT
 10
3.421411
 20
1.500165
  0
VERTEX
  8
ڲ-3
  6
DOT
 10
3.478863
 20
1.470949
  0
VERTEX
  8
ڲ-3
  6
DOT
 10
3.536787
 20
1.442610
  0
VERTEX
  8
ڲ-3
  6
DOT
 10
3.595172
 20
1.415155
  0
VERTEX
  8
ڲ-3
  6
DOT
 10
3.654007
 20
1.388592
  0
VERTEX
  8
ڲ-3
  6
DOT
 10
3.713283
 20
1.362927
  0
VERTEX
  8
ڲ-3
  6
DOT
 10
3.772989
 20
1.338168
  0
VERTEX
  8
ڲ-3
  6
DOT
 10
3.833115
 20
1.314321
  0
VERTEX
  8
ڲ-3
  6
DOT
 10
3.893651
 20
1.291394
  0
VERTEX
  8
ڲ-3
  6
DOT
 10
3.954587
 20
1.269395
  0
VERTEX
  8
ڲ-3
  6
DOT
 10
4.015912
 20
1.248329
  0
VERTEX
  8
ڲ-3
  6
DOT
 10
4.077616
 20
1.228204
  0
VERTEX
  8
ڲ-3
  6
DOT
 10
4.139688
 20
1.209027
  0
VERTEX
  8
ڲ-3
  6
DOT
 10
4.202120
 20
1.190806
  0
VERTEX
  8
ڲ-3
  6
DOT
 10
4.264899
 20
1.173547
  0
VERTEX
  8
ڲ-3
  6
DOT
 10
4.328017
 20
1.157258
  0
VERTEX
  8
ڲ-3
  6
DOT
 10
4.391463
 20
1.141945
  0
VERTEX
  8
ڲ-3
  6
DOT
 10
4.455226
 20
1.127616
  0
VERTEX
  8
ڲ-3
  6
DOT
 10
4.519297
 20
1.114278
  0
VERTEX
  8
ڲ-3
  6
DOT
 10
4.583665
 20
1.101938
  0
VERTEX
  8
ڲ-3
  6
DOT
 10
4.648319
 20
1.090603
  0
VERTEX
  8
ڲ-3
  6
DOT
 10
4.713251
 20
1.080281
  0
VERTEX
  8
ڲ-3
  6
DOT
 10
4.778448
 20
1.070977
  0
VERTEX
  8
ڲ-3
  6
DOT
 10
4.843902
 20
1.062700
  0
VERTEX
  8
ڲ-3
  6
DOT
 10
4.909602
 20
1.055457
  0
VERTEX
  8
ڲ-3
  6
DOT
 10
4.975537
 20
1.049254
  0
VERTEX
  8
ڲ-3
  6
DOT
 10
5.041698
 20
1.044099
  0
VERTEX
  8
ڲ-3
  6
DOT
 10
5.108074
 20
1.039998
  0
VERTEX
  8
ڲ-3
  6
DOT
 10
5.174655
 20
1.036960
  0
VERTEX
  8
ڲ-3
  6
DOT
 10
5.241431
 20
1.034991
  0
VERTEX
  8
ڲ-3
  6
DOT
 10
5.308391
 20
1.034098
  0
VERTEX
  8
ڲ-3
  6
DOT
 10
5.375525
 20
1.034288
  0
VERTEX
  8
ڲ-3
  6
DOT
 10
5.442824
 20
1.035569
  0
VERTEX
  8
ڲ-3
  6
DOT
 10
5.510276
 20
1.037947
  0
VERTEX
  8
ڲ-3
  6
DOT
 10
5.577871
 20
1.041430
  0
VERTEX
  8
ڲ-3
  6
DOT
 10
5.645600
 20
1.046025
  0
VERTEX
  8
ڲ-3
  6
DOT
 10
5.713452
 20
1.051738
  0
VERTEX
  8
ڲ-3
  6
DOT
 10
5.781416
 20
1.058577
  0
VERTEX
  8
ڲ-3
  6
DOT
 10
5.849483
 20
1.066550
  0
VERTEX
  8
ڲ-3
  6
DOT
 10
5.917642
 20
1.075662
  0
VERTEX
  8
ڲ-3
  6
DOT
 10
5.985884
 20
1.085922
  0
VERTEX
  8
ڲ-3
  6
DOT
 10
6.054197
 20
1.097336
  0
SEQEND
  8
0
  0
SOLID
  8
ڲ-3
 10
1.893114
 20
6.221729
 11
1.911962
 21
6.142151
 12
1.893114
 22
6.221729
 13
1.832384
 23
6.165187
  0
POLYLINE
  8
ڲ-3
  6
CONTINUOUS
 66
     1
 40
0.012565
 41
0.012565
  0
VERTEX
  8
ڲ-3
  6
CONTINUOUS
 10
1.893114
 20
6.221729
  0
VERTEX
  8
ڲ-3
  6
CONTINUOUS
 10
1.911962
 20
6.142151
  0
VERTEX
  8
ڲ-3
  6
CONTINUOUS
 10
1.832384
 20
6.165187
  0
VERTEX
  8
ڲ-3
  6
CONTINUOUS
 10
1.893114
 20
6.221729
  0
SEQEND
  8
0
  0
SOLID
  8
ڲ-3
 10
0.873262
 20
6.531664
 11
0.892109
 21
6.452086
 12
0.873262
 22
6.531664
 13
0.812531
 23
6.475121
  0
POLYLINE
  8
ڲ-3
  6
CONTINUOUS
 66
     1
 40
0.012565
 41
0.012565
  0
VERTEX
  8
ڲ-3
  6
CONTINUOUS
 10
0.873262
 20
6.531664
  0
VERTEX
  8
ڲ-3
  6
CONTINUOUS
 10
0.892109
 20
6.452086
  0
VERTEX
  8
ڲ-3
  6
CONTINUOUS
 10
0.812531
 20
6.475121
  0
VERTEX
  8
ڲ-3
  6
CONTINUOUS
 10
0.873262
 20
6.531664
  0
SEQEND
  8
0
  0
SOLID
  8
ڲ-3
 10
6.160998
 20
0.586363
 11
6.098174
 21
0.534009
 12
6.160998
 22
0.586363
 13
6.083515
 23
0.615681
  0
POLYLINE
  8
ڲ-3
  6
CONTINUOUS
 66
     1
 40
0.012565
 41
0.012565
  0
VERTEX
  8
ڲ-3
  6
CONTINUOUS
 10
6.160998
 20
0.586363
  0
VERTEX
  8
ڲ-3
  6
CONTINUOUS
 10
6.098174
 20
0.534009
  0
VERTEX
  8
ڲ-3
  6
CONTINUOUS
 10
6.083515
 20
0.615681
  0
VERTEX
  8
ڲ-3
  6
CONTINUOUS
 10
6.160998
 20
0.586363
  0
SEQEND
  8
0
  0
SOLID
  8
ڲ-3
 10
5.974619
 20
1.635534
 11
5.911794
 21
1.583180
 12
5.974619
 22
1.635534
 13
5.897135
 23
1.664852
  0
POLYLINE
  8
ڲ-3
  6
CONTINUOUS
 66
     1
 40
0.012565
 41
0.012565
  0
VERTEX
  8
ڲ-3
  6
CONTINUOUS
 10
5.974619
 20
1.635534
  0
VERTEX
  8
ڲ-3
  6
CONTINUOUS
 10
5.911794
 20
1.583180
  0
VERTEX
  8
ڲ-3
  6
CONTINUOUS
 10
5.897135
 20
1.664852
  0
VERTEX
  8
ڲ-3
  6
CONTINUOUS
 10
5.974619
 20
1.635534
  0
SEQEND
  8
0
  0
TEXT
  8
ڲ-3
 10
1.111995
 20
6.519099
 40
0.108805
  1
For applying paste.
 50
63.435414
 41
1.000000
  7
SN0
 71
     0
 72
     5
 11
1.685154
 21
7.665416
  0
TEXT
  8
ڲ-3
 10
2.207237
 20
4.891942
 40
0.362861
  1
Super quoits
 41
1.000000
  7
SN0
 71
     0
 72
     5
 11
4.600854
 21
4.891942
  0
ENDSEC
  0
EOF
